Song name
# A B C D E F G H I J K L M N O P Q R S T U V W X Y Z

Five Finger Death Punch - Walk Away tab

This is the intro for both guitars theres 2 ways and il put them up
        ph go in there at 2 n 3 n 4\strumming pattern not shown

-------------------------------\----------------------------------|
--------------------------------\---------------------------------|
---------------------------------\------4-----2-------------------|
-----4--2-3------2--0-1-----------\-----4--4--2--2----------------|
------------4-----------2----------\----2--4--0--2----------------|
------------------------------------\------2-----0----------------|
the other way ph the same spot\strumming pattern not shown
-------------------------------\----------------------------------|
--------------------------------\---------------------------------|
---------------------------------\--------------------------------|
----------------------------------\-------9--4--7--2--------------|
--9--7-8----7--5-6-----------------\------9--4--7--2--------------|
---------9---------7----------------\-----7--2--5--0--------------|
Tap to rate this tab
# A B C D E F G H I J K L M N O P Q R S T U V W X Y Z