Song name
# A B C D E F G H I J K L M N O P Q R S T U V W X Y Z

Five Finger Death Punch - Meet The Monster tab

-------------------------------------------------------------------------------
			     Meet the Monster - Five Finger Death Punch
-------------------------------------------------------------------------------
Tabbed by: metalmonkey
Email:

Tuning: Drop B

|--------------------------------------------------|
|--------------------------------------------------|
|--------------------------------------------------|
|--------------------------------------------------|
|--0-0---0-0---0-0---0-0---0-0---0-0---0-0---0-0---|
|--0-0---0-0---0-0---0-0---0-0---0-0---0-0---0-0---|

|---------------------------------------------------------------------------|
|---------------------------------------------------------------------------|
|---------------------------------------------------------------------------|
|------------------7-6h7p6-----6---------------------7-6h7p6-0--------------| x4
|--0-0-5--0-7-8--0---------8-0---8-7-0-0-5--0-7-8--0-----------8-7b~--------|
|--0-0----0------0-----------0-------0-0----0------0------------------------|

|---------------------------------------------------------------------------|
|---------------------------------------------------------------------------|
|---------------------------------------------------------------------------|
|---------------------------------------------------------------------------| x2
|-0----00001-0-0-0-0---------------0----00001-0-0-0-0-----------------------|
|-0----00001-0-0-0-0-7-6-3-6-3-2-3-0----00001-0-0-0-0-7-6-3-6-3-2b~---------|
       ....    .   .                    ....    .   .

=============================================================================

 Guitar #1
|---------------------------------------------------------------------------|
|---------------------------------------------------------------------------|
|---------------------------------------------------------------------------|
|-00000-00000-000-00000-00000-000-33333-33333-333-55555-55555-555-----------| x3
|-00000-00000-000-00000-00000-000-33333-33333-333-55555-55555-555-----------|
|-00000-00000-000-00000-00000-000-33333-33333-333-55555-55555-555-----------|
  ..... ..... ... ..... ..... ... ..... ..... ... ..... ..... ...
|---------------------------------------------------------------------------|
|---------------------------------------------------------------------------|
|---------------------------------------------------------------------------|
|-00000-00000-000-00000-00000-000-33333-33333-333-5-----------7\------------|
|-00000-00000-000-00000-00000-000-33333-33333-333-5-----------7\------------|
|-00000-00000-000-00000-00000-000-33333-33333-333-5-----------7\------------|
  ..... ..... ... ..... ..... ... ..... ..... ... .



 Guitar #2
|---------------------------------------------------------------------------|
|---------------------------------------------------------------------------|
|---------------------------------------------------------------------------|
|-0------------------------------3----------------5-------------------------| x3
|-0---------------------3---0----3----------------5-------------------------|
|-0------------------------------3----------------5-------------------------|

|---------------------------------------------------------------------------|
|---------------------------------------------------------------------------|
|---------------------------------------------------------------------------|
|-0------------------------------3----------------5-----------7\------------|
|-0---------------------3---0----3----------------5-----------7\------------|
|-0------------------------------3----------------5-----------7\------------|

=============================================================================

|---------------------------------------------------------------------------|
|---------------------------------------------------------------------------|
|---------------------------------------------------------------------------|
|------------------7-6h7p6-----6---------------------7-6h7p6-0--------------| x2
|--0-0-5--0-7-8--0---------8-0---8-7-0-0-5--0-7-8--0-----------8-7b~--------|
|--0-0----0------0-----------0-------0-0----0------0------------------------|


|---------------------------------------------------------------------------|
|---------------------------------------------------------------------------|
|---------------------------------------------------------------------------|
|---------------------------------------------------------------------------| x2
|-0----00001-0-0-0-0---------------0----00001-0-0-0-0-----------------------|
|-0----00001-0-0-0-0-7-6-3-6-3-2-3-0----00001-0-0-0-0-7-6-3-6-3-2b~---------|
       ....    .   .                    ....    .   .

=============================================================================


 Guitar #1
|---------------------------------------------------------------------------|
|---------------------------------------------------------------------------|
|---------------------------------------------------------------------------|
|-00000-00000-000-00000-00000-000-33333-33333-333-55555-55555-555-----------| x3
|-00000-00000-000-00000-00000-000-33333-33333-333-55555-55555-555-----------|
|-00000-00000-000-00000-00000-000-33333-33333-333-55555-55555-555-----------|
  ..... ..... ... ..... ..... ... ..... ..... ... ..... ..... ...
|---------------------------------------------------------------------------|
|---------------------------------------------------------------------------|
|---------------------------------------------------------------------------|
|-00000-00000-000-00000-00000-000-33333-33333-333-5-----------7\------------|
|-00000-00000-000-00000-00000-000-33333-33333-333-5-----------7\------------|
|-00000-00000-000-00000-00000-000-33333-33333-333-5-----------7\------------|
  ..... ..... ... ..... ..... ... ..... ..... ... .



 Guitar #2
|---------------------------------------------------------------------------|
|---------------------------------------------------------------------------|
|---------------------------------------------------------------------------|
|-0------------------------------3----------------5-------------------------| x3
|-0---------------------3---0----3----------------5-------------------------|
|-0------------------------------3----------------5-------------------------|

|---------------------------------------------------------------------------|
|---------------------------------------------------------------------------|
|---------------------------------------------------------------------------|
|-0------------------------------3----------------5-----------7\------------|
|-0---------------------3---0----3----------------5-----------7\------------|
|-0------------------------------3----------------5-----------7\------------|

=============================================================================

|---------------------------------------------------------------------------|
|---------------------------------------------------------------------------|
|---------------------------------------------------------------------------|
|------------------7-6h7p6-----6---------------------7-6h7p6-0--------------| x2
|--0-0-5--0-7-8--0---------8-0---8-7-0-0-5--0-7-8--0-----------8-7b~--------|
|--0-0----0------0-----------0-------0-0----0------0------------------------|


|---------------------------------------------------------------------------|
|---------------------------------------------------------------------------|
|---------------------------------------------------------------------------|
|------------------7-5---5---------------9-10-10---12-10-9h10p9-------------| x2
|--0-0-5-----7-8-------8---8-7-8-8---/12-------------------------12-10------|
|--0-0----------------------------------------------------------------------|

|---------------------------|
|---------------------------|
|---------------------------|
|--5--7--8--5--7--8--5--8---| x3
|---------------------------|
|---------------------------|

|---------------------------|
|---------------------------|
|--------------7--5---------|
|--5--7--8--5--------8--7---|
|---------------------------|
|---------------------------|

|---------------------------|
|---------------------------|
|---------------------------|
|--5--7--8--5--7--8--5--8---| x3
|---------------------------|
|---------------------------|

|---------------------------|
|--------------6--4---------|
|--------------------7--5---|
|--5--7--8--5---------------|
|---------------------------|
|---------------------------|

|---------------------------------------------------------------------------|
|---------------------------------------------------------------------------|
|---------------------------------------------------------------------------|
|----------5---------7-5---5---------------5---------7-5---5----------------| x2
|----0-5-7---8-7-8-------8---8-7-8---0-5-7---8-7-8-------8---8-7~~----------|
|--0---------------0---------------0---------------0------------------------|
   . . . .         .               . . . .         .           *

|---------------------------------------------------------------------------|
|---------------------------------------------------------------------------|
|---------------------------------------------------------------------------|
|---------------------------------------------------------------------------| x7
|-0----00001-0-0-0-0---------------0----00001-0-0-0-0-----------------------|
|-0----00001-0-0-0-0-7-6-3-6-3-2-3-0----00001-0-0-0-0-7-6-3-6-3-2b~---------|
       ....    .   .                    ....    .   .
|----------|
|----------|
|----------|
|----0-----|
|----0-----|
|----0-----|


************************************

| .   palm mute
| /   slide up
| \   slide down
| h   hammer-on
| p   pull-off
| ~   vibrato
| *   harmonic
| x   Mute note
| b   Bend
| pb  Pre-bend
| br  Bend release
| pbr Pre-bend release
| brb Bend release bend

************************************
Tap to rate this tab
 
# A B C D E F G H I J K L M N O P Q R S T U V W X Y Z