Song name
# A B C D E F G H I J K L M N O P Q R S T U V W X Y Z

Five Finger Death Punch - No One Gets Left Behind tab

----------------------------------------------------------------------------
			     No one gets left behind - 5fdp
----------------------------------------------------------------------------
Blondant@hotmail.co.uk
really easy, hope you have fun :)

Tuning: Dropped b (b,f#,b,e,g#.c#)

|------------------------------|
|------------------------------|
|-17-16-14---------------------|times 5
|------------------------------|
|------------------------------|
|------------------------------|

|---------------|-----|----------------------|
|---------------|-----|----------------------|
|---------------|-----|----------------------|
|---------------|-----|----------------------|
|-0-2-3-3-2-0-2-|-----|----------------------|
|-0-2-3-3-2-0-2-|-0TP-|-0TP-4-3-2-1-0TP------|
                  ..    ...............          this bit is fast
|-------------------------------------------|
|-------------------------------------------|
|-7-9-9-9-9--12-12-14--7-5-4-2--------------|
|-------------------------------------------|
|-------------------------------------------|
|-------------------------------------------|

|-------------------------------------------|
|-------------------------------------------|
|-------------------------------------------|
|-------------------------------------------|
|-0-2-3-3-2-0-------------------------------|
|-0-2-3-3-2-0-------------------------------|

...... - muted
TP - tremelo pick



Tap to rate this tab
# A B C D E F G H I J K L M N O P Q R S T U V W X Y Z