Song name
# A B C D E F G H I J K L M N O P Q R S T U V W X Y Z

Five Finger Death Punch - Walk Away tab

Five Finger Death Punch - Walk Away (without solo)

Tuning - Standard Baritone Tuning
         B E A D F# B - low to high
         . = Palm Mute
         ~ = vibrato

Just saw the vid on UG and wanted to tab it out b/c its my favorite 5FDP song out there......

http://www.ultimate-guitar.tv/guitar_lessons/5fdp_walk_away_guitar_lesson.html

INTRO - Each part played 4x
Guitar 1
B |---------------------------------------------------|
F#|---------------------------------------------------|
D |--------------4--4-4-4----7--7-7-7----2--2-2-2-----|
A |--2--2-2-2----4--4-4-4----7--7-7-7----2--2-2-2-----|
E |--2--2-2-2----2--2-2-2----5--5-5-5----0--0-0-0-----|
B |--0--0-0-0-00----------00----------00----------00--|
              ..          ..          ..          ..

Guitar 2 - there are a few pinch harmonics mixed in especially on the vibrato notes - 
for them..
B |------------------------------------------------------------------------|
F#|--12~-10-12---------------------------12~-10-12-------------------------|
D |-x---------11~--14~-141414-12-11-9~--x---------1111--14~-141414-12-11-9~|
A |x-----------------------------------x-----------------------------------|
E |------------------------------------------------------------------------|
B |------------------------------------------------------------------------|
                         . .  .  .                          . .    .  .
VERSE - play 4x
Guitar 1 - This is not exactly that way he plays it but you can embellish the rhythm 
as you want.
B |---------------------------------|
F#|---------------------------------|
D |---------------------------------|
A |-----9------4-----7------2-------|
E |-777-7--222-2-555-5--000-0-------|
B |---------------------------------|
    ...    ...   ...    ...

Guitar 2 - let the notes ring
B |----7------2-----5-----0---------|
F#|-----7-----2------5----0---------|
D |---9------4-----7-----2----------|
A |--9------4-----7-----2-----------|
E |-7------2-----5-----0------------|
B |---------------------------------|

CHORUS - play INTRO 3x
VERSE  - 4x
CHORUS - play INTRO 3x

SOLO - not tabbing the SOLO but here is the backing guitar part
Guitar 1 - play 2x
B |----------------------------------------------------------------|
F#|----------------------------------------------------------------|
D |----------------------------------------------------------------|
A |-2--2--2-2-2-4--6--6--6-6-6--9-9--9--9-9-9--x-x--x-2--2--2-2-2--|
E |-0--0--0-0-0-2--4--4--4-4-4--6-7--7--7-7-7--x-x--x-0--0--0-0-0--|
B |--------------------------------------------x-x--x--------------|

POST SOLO - Both Guitars
B |---0---0---0---0-------0----0--0---|
F#|--0---0---0-----0-----0----0---0---|
D |-7---2---4---4---4---7----1----2---|
A |------------2-2--------------------|
E |-----------------------------------|
B |-----------------------------------|

CHORUS again

OUTRO - Both Guitars
B |---0---0---0---0-------0----0--0---|
F#|--0---0---0-----0-----0----0---0---|
D |-7---2---4---4---4---7----1----2---|
A |------------2-2--------------------|
E |-----------------------------------|
B |-----------------------------------|
Tap to rate this tab
# A B C D E F G H I J K L M N O P Q R S T U V W X Y Z