Song name
# A B C D E F G H I J K L M N O P Q R S T U V W X Y Z

Five Finger Death Punch - Bulletproof tab

*=Palm Mute
P=Pull Off
H=Hammer on
/=Slide

I got this first riff from another tab but the rest is by ear

    Intro and Verse:
 B|-----------------------------------------------------------------------------|
F#|-----------------------------------------------------------------------------|
 D|-----------------------------------------------------------------------------|
 A|--------------------------------------------------5-7-5----------------------|
 E|--------5-7-5-7-------5-7-5-7-------5-7-5-7-5-5-7-------7-5------------------|
 B|--0-0-0---------0-0-0---------0-0-0------------------------------------------|
     * * *         * * *         * * *         * * * * * * * *

    Pre Chorus:
 B|----------------------------------------------------------------------------|
F#|----------------------------------------------------------------------------|
 D|----------------------------------------------------------------------------|
 A|----------------------------------------------------------------------------|
 E|--3-2--3-2--3-2--3-2--------------------------------------------------------|
 B|--1-0--1-0--1-0--1-0--0-0-0--0-0-0------------------------------------------|
                         * * *  * * *
    Chorus:
 B|---------------------------------------------------------------------------------|
F#|---------------------------------------------------------------------------------|
 D|---------------------------------------------------------------------------------|
 A|---------------------------------------------------------------------------------|
 E|-----------------3/7----------------3-5-3-1--------------------------------------|
 B|--0-0---0-0-0--------0-0---0-0-0-------------------------------------------------|
     * * * * * *        * *   * * *
  I haven't figured out the solo yet but this is the rythem to it
    Solo Rythem:
B|-------------------------------------------------------------------------|
F#|------------------------------------------------------------------------|
 D|------------------------------------------------------------------------|
 A|------------------------------------------------------------------------|
 E|------------------------------------------------------------------------|
 B|--0--3-3-3-0-3-3-3-0-3-3-3----------------------------------------------|
     *  * * * * * * * * * * *

   Hope you learned from it
Tap to rate this tab
# A B C D E F G H I J K L M N O P Q R S T U V W X Y Z