Song name
# A B C D E F G H I J K L M N O P Q R S T U V W X Y Z

Five Finger Death Punch - No One Gets Left Behind tab

-------------------------------------------------------------------------------
No One Gets Left Behind  Five Finger Death Punch
-------------------------------------------------------------------------------
Tabbed by: Matt Elliott
B Tuning-B E A D F# B

.=Palm Mute

B|-------------------------------------------------------------|
F|-------------------------------------------------------------|
D|-----19--18------19--18------19--18------19--18------19--18--|
A|-16----------16----------16----------16----------16----------|
E|-------------------------------------------------------------|
B|-------------------------------------------------------------|
 |
B|-------------------------------------------------------------|
F|-------------------------------------------------------------|
D|-------------------------------------------------------------|
A|--2----4------5----4------2----4-----------------------------|
E|--2----4------5----4------2----4-----------------------------|
B|--0----2------3----2------0----2-----------------------------|

B|-------------------------------------------------------------|
F|-------------------------------------------------------------|
D|-----19--18------19--18------19--18------19--18------19--18--|
A|-16----------16----------16----------16----------16----------|
E|-------------------------------------------------------------|
B|-------------------------------------------------------------|
 |
B|-------------------------------------------------------------|
F|-------------------------------------------------------------|
D|-------------------------------------------------------------|
A|--2----4------5----4------2----4-----------------------------|
E|--2----4------5----4------2----4-----------------------------|
B|--0----2------3----2------0----2----0--0--0--0-0-0-0-0-0-0-0-|
                                      .  .  .  . . . . . . . .

B|-------------------------------------------------------------|
F|-------------------------------------------------------------|
D|-----19--18------19--18------19--18------19--18------19--18--|
A|-16----------16----------16----------16----------16----------|
E|-------------------------------------------------------------|
B|-------------------------------------------------------------|
 |
B|-------------------------------------------------------------|
F|-------------------------------------------------------------|
D|-------------------------------------------------------------|
A|--2----4------5----4------2----4-----------------------------|
E|--2----4------5----4------2----4-----------------------------|
B|--0----2------3----2------0----2-----------------------------|

B|-------------------------------------------------------------|
F|-------------------------------------------------------------|
D|-----19--18------19--18------19--18------19--18------19--18--|
A|-16----------16----------16----------16----------16----------|
E|-------------------------------------------------------------|
B|-------------------------------------------------------------|
 |
B|-------------------------------------------------------------|
F|-------------------------------------------------------------|
D|-------------------------------------------------------------|
A|--2----4------5----4------2----4-----------------------------|
E|--2----4------5----4------2----4-----------------------------|
B|--0----2------3----2------0----2----0--0--0--0-0-0-0-0-0-0-0-|
                                      .  .  .  . . . . . . . .
B|-------------------------------------------------------------|
F|-------------------------------------------------------------|
D|-------------------------------------------------------------|
A|--2----4------5----4------2----4-----------------------------|
E|--2----4------5----4------2----4-----------------------------|
B|--0----2------3----2------0----2----0--0--0--0-0-0-0-0-0-0-0-|
                                      .  .  .  . . . . . . . .

B|-------------------------------------------------------------|
F|-------------------------------------------------------------|
D|-------------------------------------------------------------|
A|--2----4------5----4------2----4-----------------------------|
E|--2----4------5----4------2----4-----------------------------|
B|--0----2------3----2------0----2----0--0--0--0-0-0-0-0-0-0-0-|
                                      .  .  .  . . . . . . . .

B|-------------------------------------------------------------|
F|-------------------------------------------------------------|
D|-------------------------------------------------------------|
A|--2----4------5----4------2----4-----------------------------|
E|--2----4------5----4------2----4-----------------------------|
B|--0----2------3----2------0----2----0--0--0--0-0-0-0-0-0-0-0-|
                                      .  .  .  . . . . . . . .

B|-------------------------------------------------------------|
F|-------------------------------------------------------------|
D|-------------------------------------------------------------|
A|--2----4------5----4------2----4-----------------------------|
E|--2----4------5----4------2----4-----------------------------|
B|--0----2------3----2------0----2----0--0--0--0-0-0-0-0-0-0-0-|
                                      .  .  .  . . . . . . . .

B|-------------------------------------------------------------|
F|-------------------------------------------------------------|
D|-------------------------------------------------------------|
A|--2----4------5----4------2----4-----------------------------|
E|--2----4------5----4------2----4-----------------------------|
B|--0----2------3----2------0----2----0--0--0--0-0-0-0-0-0-0-0-|
                                      .  .  .  . . . . . . . .

B|-------------------------------------------------------------|
F|-------------------------------------------------------------|
D|-------------------------------------------------------------|
A|--2----4------5----4------2----4-----------------------------|
E|--2----4------5----4------2----4-----------------------------|
B|--0----2------3----2------0----2----0--0--0--0-0-0-0-0-0-0-0-|
                                      .  .  .  . . . . . . . .

B|-------------------------------------------------------------|
F|-------------------------------------------------------------|
D|-------------------------------------------------------------|
A|--2----4------5----4------2----4-----------------------------|
E|--2----4------5----4------2----4-----------------------------|
B|--0----2------3----2------0----2----0--0--0--0-0-0-0-0-0-0-0-|
                                      .  .  .  . . . . . . . .

B|-------------------------------------------------------------|
F|-------------------------------------------------------------|
D|-------------------------------------------------------------|
A|--2----4------5----4------2----4-----------------------------|
E|--2----4------5----4------2----4-----------------------------|
B|--0----2------3----2------0----2----0--0--0--0-0-0-0-0-0-0-0-|
                                      .  .  .  . . . . . . . .

B|-------------------------------------------------------------|
F|-------------------------------------------------------------|
D|-----19--18------19--18------19--18------19--18------19--18--|
A|-16----------16----------16----------16----------16----------|
E|-------------------------------------------------------------|
B|-------------------------------------------------------------|
 |
B|-------------------------------------------------------------|
F|-------------------------------------------------------------|
D|-------------------------------------------------------------|
A|--2----4------5----4------2----4-----------------------------|
E|--2----4------5----4------2----4-----------------------------|
B|--0----2------3----2------0----2-----------------------------|

B|-------------------------------------------------------------|
F|-------------------------------------------------------------|
D|-----19--18------19--18------19--18------19--18------19--18--|
A|-16----------16----------16----------16----------16----------|
E|-------------------------------------------------------------|
B|-------------------------------------------------------------|
 |
B|-------------------------------------------------------------|
F|-------------------------------------------------------------|
D|-------------------------------------------------------------|
A|--2----4------5----4------2----4-----------------------------|
E|--2----4------5----4------2----4-----------------------------|
B|--0----2------3----2------0----2-------------0-0-0-0-0-0-0-0-|

B|-------------------------------------------------------------|
F|-------------------------------------------------------------|
D|-----19--18------19--18------19--18------19--18------19--18--|
A|-16----------16----------16----------16----------16----------|
E|-------------------------------------------------------------|
B|-------------------------------------------------------------|
 |
B|-------------------------------------------------------------|
F|-------------------------------------------------------------|
D|-------------------------------------------------------------|
A|--2----4------5----4------2----4-----------------------------|
E|--2----4------5----4------2----4-----------------------------|
B|--0----2------3----2------0----2-----------------------------|

B|-------------------------------------------------------------|
F|-------------------------------------------------------------|
D|-----19--18------19--18------19--18------19--18------19--18--|
A|-16----------16----------16----------16----------16----------|
E|-------------------------------------------------------------|
B|-------------------------------------------------------------|
 |
B|-------------------------------------------------------------|
F|-------------------------------------------------------------|
D|-------------------------------------------------------------|
A|--2----4------5----4------2----4-----------------------------|
E|--2----4------5----4------2----4-----------------------------|
B|--0----2------3----2------0----2-----------------------------|

B|----------------------------------------------------------------------|
F|-----------------10--10-12------------------10--10-12-----------------|
D|-9-11--11--9-11-------------9-11--11--9-11-------------9-11--11--9-11-|
A|----------------------------------------------------------------------|
E|----------------------------------------------------------------------|
B|----------------------------------------------------------------------|

B|----------------------------------------------------------------------|
F|----------------------------------------------------------------------|
D|-9--------------------------------------------------------------------|
A|----12-11--9--7-6-----------------------------------------------------|
E|----------------------------------------------------------------------|
B|----------------------------------------------------------------------|

B|----------------------------------------------------------------------|
F|-----------------10--10-12------------------10--10-12-----------------|
D|-9-11--11--9-11-------------9-11--11--9-11-------------9-11--11--9-11-|
A|----------------------------------------------------------------------|
E|----------------------------------------------------------------------|
B|----------------------------------------------------------------------|

B|----------------------------------------------------------------------|
F|----------------------------------------------------------------------|
D|-9--------------------------------------------------------------------|
A|----12-11--9--7-6-----------------------------------------------------|
E|----------------------------------------------------------------------|
B|----------------------------------------------------------------------|

B|-------------------------------------------------------------|
F|-------------------------------------------------------------|
D|-------------------------------------------------------------|
A|--2----4------5----4------2----4-----------------------------|
E|--2----4------5----4------2----4-----------------------------|
B|--0----2------3----2------0----2----0--0--0--0-0-0-0-0-0-0-0-|
                                      .  .  .  . . . . . . . .

B|-------------------------------------------------------------|
F|-------------------------------------------------------------|
D|-------------------------------------------------------------|
A|--2----4------5----4------2----4-----------------------------|
E|--2----4------5----4------2----4-----------------------------|
B|--0----2------3----2------0----2----0--0--0--0-0-0-0-0-0-0-0-|
                                      .  .  .  . . . . . . . .

B|-------------------------------------------------------------|
F|-------------------------------------------------------------|
D|-------------------------------------------------------------|
A|--2----4------5----4------2----4-----------------------------|
E|--2----4------5----4------2----4-----------------------------|
B|--0----2------3----2------0----2----0--0--0--0-0-0-0-0-0-0-0-|
                                      .  .  .  . . . . . . . .

B|-------------------------------------------------------------|
F|-------------------------------------------------------------|
D|-------------------------------------------------------------|
A|--2----4------5----4------2----4-----------------------------|
E|--2----4------5----4------2----4-----------------------------|
B|--0----2------3----2------0----2----0--0--0--0-0-0-0-0-0-0-0-|
                                      .  .  .  . . . . . . . .

B|-------------------------------------------------------------|
F|-------------------------------------------------------------|
D|-----19--18------19--18------19--18------19--18------19--18--|
A|-16----------16----------16----------16----------16----------|
E|-------------------------------------------------------------|
B|-------------------------------------------------------------|
 |
B|-------------------------------------------------------------|
F|-------------------------------------------------------------|
D|-------------------------------------------------------------|
A|--2----4------5----4------2----4-----------------------------|
E|--2----4------5----4------2----4-----------------------------|
B|--0----2------3----2------0----2-----------------------------|

B|-------------------------------------------------------------|
F|-------------------------------------------------------------|
D|-----19--18------19--18------19--18------19--18------19--18--|
A|-16----------16----------16----------16----------16----------|
E|-------------------------------------------------------------|
B|-------------------------------------------------------------|
 |
B|-------------------------------------------------------------|
F|-------------------------------------------------------------|
D|-------------------------------------------------------------|
A|--2----4------5----4------2----4-----------------------------|
E|--2----4------5----4------2----4-----------------------------|
B|--0----2------3----2------0----2-------------0-0-0-0-0-0-0-0-|

B|-------------------------------------------------------------|
F|-------------------------------------------------------------|
D|-----19--18------19--18------19--18------19--18------19--18--|
A|-16----------16----------16----------16----------16----------|
E|-------------------------------------------------------------|
B|-------------------------------------------------------------|
 |
B|-------------------------------------------------------------|
F|-------------------------------------------------------------|
D|-------------------------------------------------------------|
A|--2----4------5----4------2----4-----------------------------|
E|--2----4------5----4------2----4-----------------------------|
B|--0----2------3----2------0----2-----------------------------|

B|-------------------------------------------------------------|
F|-------------------------------------------------------------|
D|-----19--18------19--18------19--18------19--18------19--18--|
A|-16----------16----------16----------16----------16----------|
E|-------------------------------------------------------------|
B|-------------------------------------------------------------|
 |
B|-------------------------------------------------------------|
F|-------------------------------------------------------------|
D|-------------------------------------------------------------|
A|--2----4------5----4------2----4-----------------------------|
E|--2----4------5----4------2----4-----------------------------|
B|--0----2------3----2------0----2-----------------------------|

B|----------------------------------------------------------------------|
F|-----------------10--10-12------------------10--10-12-----------------|
D|-9-11--11--9-11-------------9-11--11--9-11-------------9-11--11--9-11-|
A|----------------------------------------------------------------------|
E|----------------------------------------------------------------------|
B|----------------------------------------------------------------------|

B|----------------------------------------------------------------------|
F|----------------------------------------------------------------------|
D|-9--------------------------------------------------------------------|
A|----12-11--9--7-6-----------------------------------------------------|
E|----------------------------------------------------------------------|
B|----------------------------------------------------------------------|

B|----------------------------------------------------------------------|
F|-----------------10--10-12------------------10--10-12-----------------|
D|-9-11--11--9-11-------------9-11--11--9-11-------------9-11--11--9-11-|
A|----------------------------------------------------------------------|
E|----------------------------------------------------------------------|
B|----------------------------------------------------------------------|

B|----------------------------------------------------------------------|
F|----------------------------------------------------------------------|
D|-9--------------------------------------------------------------------|
A|----12-11--9--7-6-----------------------------------------------------|
E|----------------------------------------------------------------------|
B|----------------------------------------------------------------------|

B|----------------------------------------------------------|
F|----------------------------------------------------------|
D|----------------------------------------------------------|
A|---------4-----------5----------------4-----------5-----5-|
E|---------4-----------5----------------4-----------5-----5-|
B|-0-0-0-0-2-0-0-0-0-0-3--------0-0-0-0-2-0-0-0-0-0-3-0-0-3-|
   . . . . . . . . . . .        . . . . . . . . . . . . . .

B|--------------------------------------------------------------|
F|--------------------------------------------------------------|
D|--------------------------------------------------------------|
A|---------4-----------5----------------4---------------4-------|
E|---------4-----------5----------------4---------------4-------|
B|-0-0-0-0-2-0-0-0-0-0-3--------0-0-0-0-2-0-0-0-0-0-0-0-2-0-0-0-|
   . . . . . . . . . . .        . . . . . . . . . . . . . . . .

B|----------------------------------------------------|
F|----------------------------------------------------|
D|----------------------------------------------------|
A|---------4-----------5----------------4-----------5-|
E|---------4-----------5----------------4-----------5-|
B|-0-0-0-0-2-0-0-0-0-0-3--------0-0-0-0-2-0-0-0-0-0-3-|
   . . . . . . . . . . .        . . . . . . . . . . .

B|--------------------------------------------------------------|
F|--------------------------------------------------------------|
D|--------------------------------------------------------------|
A|---------4-----------5----------------4---------------4-------|
E|---------4-----------5----------------4---------------4-------|
B|-0-0-0-0-2-0-0-0-0-0-3--------0-0-0-0-2-0-0-0-0-0-0-0-2-0-0-0-|
   . . . . . . . . . . .        . . . . . . . . . . . . . . . .

B|-------------------------------------------------------------|
F|-------------------------------------------------------------|
D|-----19--18------19--18------19--18------19--18------19--18--|
A|-16----------16----------16----------16----------16----------|
E|-------------------------------------------------------------|
B|-------------------------------------------------------------|

B|----------------------------------------------------------------------|
F|-----------------10--10-12------------------10--10-12-----------------|
D|-9-11--11--9-11-------------9-11--11--9-11-------------9-11--11--9-11-|
A|----------------------------------------------------------------------|
E|----------------------------------------------------------------------|
B|----------------------------------------------------------------------|

B|----------------------------------------------------------------------|
F|----------------------------------------------------------------------|
D|-9--------------------------------------------------------------------|
A|----12-11--9--7-6-----------------------------------------------------|
E|----------------------------------------------------------------------|
B|----------------------------------------------------------------------|

B|----------------------------------------------------------------------|
F|-----------------10--10-12------------------10--10-12-----------------|
D|-9-11--11--9-11-------------9-11--11--9-11-------------9-11--11--9-11-|
A|----------------------------------------------------------------------|
E|----------------------------------------------------------------------|
B|----------------------------------------------------------------------|

B|----------------------------------------------------------------------|
F|----------------------------------------------------------------------|
D|-9--------------------------------------------------------------------|
A|----12-11--9--7-6-----------------------------------------------------|
E|----------------------------------------------------------------------|
B|----------------------------------------------------------------------|

B|-------------------------------------------------------------|
F|-------------------------------------------------------------|
D|-------------------------------------------------------------|
A|--2----4------5----4------2----4-----------------------------|
E|--2----4------5----4------2----4-----------------------------|
B|--0----2------3----2------0----2----0--0--0--0-0-0-0-0-0-0-0-|
                                      .  .  .  . . . . . . . .

B|-------------------------------------------------------------|
F|-------------------------------------------------------------|
D|-------------------------------------------------------------|
A|--2----4------5----4------2----4-----------------------------|
E|--2----4------5----4------2----4-----------------------------|
B|--0----2------3----2------0----2----0--0--0--0-0-0-0-0-0-0-0-|
                                      .  .  .  . . . . . . . .

B|-------------------------------------------------------------|
F|-------------------------------------------------------------|
D|-------------------------------------------------------------|
A|--2----4------5----4------2----4-----------------------------|
E|--2----4------5----4------2----4-----------------------------|
B|--0----2------3----2------0----2----0--0--0--0-0-0-0-0-0-0-0-|
                                      .  .  .  . . . . . . . .

B|-------------------------------------------------------------|
F|-------------------------------------------------------------|
D|-------------------------------------------------------------|
A|--2----4------5----4------2----4-----------------------------|
E|--2----4------5----4------2----4-----------------------------|
B|--0----2------3----2------0----2----0--0--0--0-0-0-0-0-0-0-0-|
                                      .  .  .  . . . . . . . .

B|-------------------------------------------------------------|
F|-------------------------------------------------------------|
D|-----19--18------19--18------19--18------19--18------19--18--|
A|-16----------16----------16----------16----------16----------|
E|-------------------------------------------------------------|
B|-------------------------------------------------------------|
 |
B|-------------------------------------------------------------|
F|-------------------------------------------------------------|
D|-------------------------------------------------------------|
A|--2----4------5----4------2----4-----------------------------|
E|--2----4------5----4------2----4-----------------------------|
B|--0----2------3----2------0----2-----------------------------|

B|-------------------------------------------------------------|
F|-------------------------------------------------------------|
D|-----19--18------19--18------19--18------19--18------19--18--|
A|-16----------16----------16----------16----------16----------|
E|-------------------------------------------------------------|
B|-------------------------------------------------------------|
 |
B|-------------------------------------------------------------|
F|-------------------------------------------------------------|
D|-------------------------------------------------------------|
A|--2----4------5----4------2----4-----------------------------|
E|--2----4------5----4------2----4-----------------------------|
B|--0----2------3----2------0----2-------------0-0-0-0-0-0-0-0-|

B|-------------------------------------------------------------|
F|-------------------------------------------------------------|
D|-----19--18------19--18------19--18------19--18------19--18--|
A|-16----------16----------16----------16----------16----------|
E|-------------------------------------------------------------|
B|-------------------------------------------------------------|
 |
B|-------------------------------------------------------------|
F|-------------------------------------------------------------|
D|-------------------------------------------------------------|
A|--2----4------5----4------2----4-----------------------------|
E|--2----4------5----4------2----4-----------------------------|
B|--0----2------3----2------0----2-----------------------------|

B|-------------------------------------------------------------|
F|-------------------------------------------------------------|
D|-----19--18------19--18------19--18------19--18------19--18--|
A|-16----------16----------16----------16----------16----------|
E|-------------------------------------------------------------|
B|-------------------------------------------------------------|
 |
B|-------------------------------------------------------------|
F|-------------------------------------------------------------|
D|-------------------------------------------------------------|
A|--2----4------5----4------2----4-----------------------------|
E|--2----4------5----4------2----4-----------------------------|
B|--0----2------3----2------0----2-------------0-0-0-0-0-0-0-0-|

B|---------------------------------|
F|---------------------------------|
D|---------------------------------|
A|--2----4------5----4------2----4-|
E|--2----4------5----4------2----4-|
B|--0----2------3----2------0----2-|

Tap to rate this tab
 
# A B C D E F G H I J K L M N O P Q R S T U V W X Y Z