Song name
# A B C D E F G H I J K L M N O P Q R S T U V W X Y Z

Five Finger Death Punch - The Devils Own tab

               ~~The Devils Own Tab~~

please enjoy the tab i am posting for the devils own.

   Intro:
  C#|----------------------------------------------------------------------|
  G#|----------------------------------------------------------------------|
  E|-----------------------------------------------------------------------|
  B|-----------------------------------------------------------------------|
  F#|-5-5-5-5-5-5-5-5-5-5-5-5-3-3-3-5-5-5-5-5-5-5-5-5-5-5-5-8-8-8-10-10-10-|
  B|-----------------------------------------------------------------------|

  C#|----------------------------------------------------------------------|
  G#|----------------------------------------------------------------------|
  E|-----------------------------------------------------------------------|
  B|-----------------------------10-10-10-7-7-7-7-7-7-7-7-7-7-7-7----------|
  F#|-10-10-10-10-10-10-10-10-10-8--8--8--5-5-5-5-5-5-5-5-5-5-5-5----------|
  B|-----------------------------------------------------------------------|


  Chorus:
  C#|----------------------------------------------------------------------|
  G#|----------------------------------------------------------------------|
  E|--7----7------------------7----7---------------------------------------|
  B|--7----7----8----5---3----7----7----8----5---3-------------------------|
  F#|-5----5----8----5---3----5----5----8----5---3-------------------------|
  B|------------8----5---3--------------8----5---3-------------------------|

  Where did i do wrong? Who was I supposed to be?
  No matter what i've done, You've Always Criticized me
  Where did I go wrong? Who was I supposed to be?
  When it's said and done, will you remember...


  Verse 1:
  C#|-----------------------------------------------------------------------|
  G#|-----------------------------------------------------------------------|
  E|------------------------------------------------------------------------|
  B|------------------------------------------------------------------------|
  F#|-000-000-0-000 000-0-000-0-000-000-0-000-0-000-------------------------|
  B|--000-000-0-000-000-0-000-0-000-000-0-000-0-000-0-1-2-3-4-3-2-1-7-6-5-4-|

  C#|--------|--------------------------------------------------------------|
  G#|--------|--------------------------------------------------------------|
  E|---------|--------------------------------------------------------------|
  B|---------|Reapeat X4----------------------------------------------------|
  F#|--------|--------------------------------------------------------------|
  B|-6-5-4-3-|--------------------------------------------------------------|

   Slap on the wrist,smack in the face. The Family tree
  Gave me a name,and nothing more. neglected seed. Why!


  Pre-Chorus:
  C#|----------------------------------------------------|------------------|
  G#|----------------------------------------------------|------------------|
  E|----------------------3--2---------------------------|------------------|
  B|----------------------3--2---------------------------|-Repeat-X4--------|
  F#|0-0000-0-0000-0-0000-1--0-3-3333-3-333-5-5555-5-3-2-|------------------|
  B|-o-0000-0-0000-0-0000------3-3333-3-333-5-5555-5-3-2-|------------------|

  It's because of you I'm broken
  It's because of you I'm dead inside
  I never asked to be here!
  It's bebecause of you I'm god forsaken
  I never wanted this!
  It's because of you I'm dead inside


  Chorus:
  C#|-----------------------------------------------|-----------------------|
  G#|-----------------------------------------------|-----------------------|
  E|--7----7----------------------------------------|-----------------------|
  B|--7----7----8-----------------------------------|--Repeat X2------------|
  F#|-5----5----8----5-5--5--5-5--5--3-3--3--3-3--3-|-----------------------|
  B|------------8----5-5--5--5-5--5--3-3--3--3-3--3-|-----------------------|

  Where did I go wrong? Who was I supposed to be?
  No matter what I've done, you've always criticized me.
  What did I do wrong? What was I supposed to be?
  When it's said and done, will you remember, Me!


  Verse 2:
  C#|-----------------------------------------------------------------------|
  G#|-----------------------------------------------------------------------|
  E|------------------------------------------------------------------------|
  B|------------------------------------------------------------------------|
  F#|-000-000-0-000 000-0-000-0-000-000-0-000-0-000-------------------------|
  B|--000-000-0-000-000-0-000-0-000-000-0-000-0-000-0-1-2-3-4-3-2-1-7-6-5-4-|

  C#|--------|--------------------------------------------------------------|
  G#|--------|--------------------------------------------------------------|
  E|---------|--------------------------------------------------------------|
  B|---------|Reapeat X4----------------------------------------------------|
  F#|--------|--------------------------------------------------------------|
  B|-6-5-4-3-|--------------------------------------------------------------|

  A happy home, a fairy tale, a broken dream.
  Gave me a life, then turned away, killed everything. Why!


  Pre-Chorus 2:
  C#|----------------------------------------------------|------------------|
  G#|----------------------------------------------------|------------------|
  E|----------------------3--2---------------------------|------------------|
  B|----------------------3--2---------------------------|-Repeat-X4--------|
  F#|0-0000-0-0000-0-0000-1--0-3-3333-3-333-5-5555-5-3-2-|------------------|
  B|-o-0000-0-0000-0-0000------3-3333-3-333-5-5555-5-3-2-|------------------|

  It's because of you I'm broken
  It's because pf you I'm dead inside
  I never asked to be here!
  It's bebecause of you I'm god forsaken
  I never wanted this!
  It's because of you I'm dead inside


  Pre Chorus 3:
  C#|-----------------------------------------------------------------------|
  G#|-----------------------------------------------------------------------|
  E|------------------------------------------------------------------------|
  B|------------------------------------------------------------------------|
  F#|0000-0000-0000-0000-0000-0000-0000-0000-0000-0000-0000-0000-0000-0000--|
  B|-0000-0000-0000-0000-0000-0000-0000-0000-0000-0000-0000-0000-0000-0000--|

  C#|----------|-------------------------------------------------------------|
  G#|----------|-------------------------------------------------------------|
  E|-----------|-------0-4-2-0-2-------0-4-2-0-2-------0-4-2-0-2-------0-4-2-|
  B|-----------|-0-0-0-----------0-0-0-----------0-0-0-----------0-0-0-------|
  F#|0000-0000-|-------------------------------------------------------------|
  B|-0000-0000-|-------------------------------------------------------------|

  C#|-----|---------------------------------------------------|-------------|
  G#|-0-2-|---------------------------------------------------|-------------|
  E|------|---------------------------------------------------|-------------|
  B|------|-0-4-2-0-2----2--------7-7--7--7-7--7--7-7--7--7-7-|-------------|
  F#|-----|------------4---5-4-5--5-5--5--5-5--5--5-5--5--5-5-|-------------|
  B|------|---------------------------------------------------|-------------|

  Fuck!
  Fsthere, bastard. I'm the Devils very own!
  Mother, know not, just who i've become!
  Father, hate me, for being all your not!
  Mothere's baby, I hate what I've become!
  I hate what I've become!
  I hate what I've become!


  Pre-Chorus 4:
  C#|----------------------------------------------------|-------------------|
  G#|----------------------------------------------------|-------------------|
  E|----------------------3--2---------------------------|-------------------|
  B|----------------------3--2---------------------------|-Repeat-X2---------|
  F#|0-0000-0-0000-0-0000-1--0-3-3333-3-333-5-5555-5-3-2-|-------------------|
  B|-o-0000-0-0000-0-0000------3-3333-3-333-5-5555-5-3-2-|-------------------|

  It's because of you I'm broken
  It's because of you I'm dead inside


  Chorus:
  C#|----------------------------------------------------------------------|
  G#|----------------------------------------------------------------------|
  E|--7----7------------------7----7---------------------------------------|
  B|--7----7----8----5---3----7----7----8----5---3-------------------------|
  F#|-5----5----8----5---3----5----5----8----5---3-------------------------|
  B|------------8----5---3--------------8----5---3-------------------------|

  Where did I go wrong? Who was I supposed to be?
  No matter what I've done, you've always criticized me.
  What did I do wrong? What was I supposed to be?
  When it's said and done, will you remember, Me!
Tap to rate this tab
 
# A B C D E F G H I J K L M N O P Q R S T U V W X Y Z