Song name
# A B C D E F G H I J K L M N O P Q R S T U V W X Y Z

Five Finger Death Punch - Walk Away tab

-------------------------------------------------------------------------------
			WALK AWAY - Five Finger Death Punch
-------------------------------------------------------------------------------
Tabbed by: Blake256789		
Email: blake256789@yahoo.com

Tuning: Drop C

D|---------------------------------------------------------------------------|
A|----13b14---13--13b14r13------------------------14----16----16b18r16-------|
F|-------------------------13b15----13-------/13----13----13-----------------|
C|---------------------------------------------------------------------------|
G|---------------------------------------------------------------------------|
C|---------------------------------------------------------------------------|

D|------------------------------13--13b14r13------13--13b14r14---------------|
A|----13 13b14r13------------------------------------------------------------|
F|----------------13b15r13----13--13--------13--13--13--------13-------------|
C|---------------------------------------------------------------------------|
G|---------------------------------------------------------------------------|
C|---------------------------------------------------------------------------|

D|---13----------------------11-/-16----------------------14-16/21-21--------|
A|------14-16-13-14-11-13-14---------18-19-16-18-14-16-18-------------19-----|
F|---------------------------------------------------------------------------|
C|---------------------------------------------------------------------------|
G|---------------------------------------------------------------------------|
C|---------------------------------------------------------------------------|

D|---21----21b23r20-20b21r20-------------------------------------------------|
A|------19-------------------21b23r21----------------------------------------|
F|---------------------------------------------------------------------------|
C|---------------------------------------------------------------------------|
G|---------------------------------------------------------------------------|
C|---------------------------------------------------------------------------|



************************************

| /   slide up
| \   slide down
| h   hammer-on
| p   pull-off
| ~   vibrato
| +   harmonic
| x   Mute note
| b   Bend
| pb  Pre-bend
| br  Bend release
| pbr Pre-bend release
| brb Bend release bend

************************************
Tap to rate this tab
 
# A B C D E F G H I J K L M N O P Q R S T U V W X Y Z