Song name
# A B C D E F G H I J K L M N O P Q R S T U V W X Y Z

Five Finger Death Punch - War Is The Answer tab

b=full bend
^=bend and release
~~=vibrato
p=pull-off
h=hammer-on
^^0.5=bend and release a half step twice
gb=gradual bend
ph=pinch harmonic
r=release
pm=palm mute
b.5=bend a half step
pb=pre-bend
/=slide up

Sup? This is my very first tab! I tabbed it cause apparently nobody else knows it. I
think this is actually in Drop-C, but this tab is in standard so you don't have to detune.
I know this is almost 100% correct because I used WavePad Sound Editor and slowed it 
down to about a quarter of the speed. Anyway, here ya go!

War is the Answer guitar solo - Five Finger Death Punch

                play 7X (bend 9, play 10)
---------------------------|
-7-10-9-7----------10---12-|
----------10-9-7-9b---9b---|
---------------------------|
---------------------------|
---------------------------|

-----------------------------------------|
---------------------------12------------|
-10-9-7-9-10-11-10-9-7-9-10--9^7-9-10-11-|
-----------------------------------------|
-----------------------------------------|
-----------------------------------------|

----------------------------------------|
------------12--12----------------------|
-10-9-7-9-10--10--10-9-7-9-10-11-10-9-7-|
----------------------------------------|
----------------------------------------|
----------------------------------------|

-----------------------------------------------|
-----12-------------------------------12-------|
-9-10--10-9-7-9-10-9-10-11-10-9-7-9-10--10-9-7-|
-----------------------------------------------|
-----------------------------------------------|
-----------------------------------------------|

-----------------------------------------------------|
-------------------------12--------------------------|
-9-10-9-10-11-10-9-7-9-10--10-9-10-11-10-9-7-9-10-10-|
-----------------------------------------------------|
-----------------------------------------------------|
-----------------------------------------------------|

-----------------------------------------------12-12--------|
-9-10-----10-12-10-----10-12-14-15-14-12--12-15-----15-12---|
-----11-12--------11-12-----------------14---------------14-|
------------------------------------------------------------|
------------------------------------------------------------|
------------------------------------------------------------|

play this twice
-12-12-12-12--------|
------------15-12---|
-----------------14-|
--------------------|
--------------------|
--------------------|
                  ~~
-12-12-12-----------|
---------15-12-17b--|
--------------------|
--------------------|
--------------------|
--------------------|

                                      0.5     ~~
-14--14-16-17-16-17p16h17p16p14--14-16^^--17gb--|
---17--------------------------17-------14------|
------------------------------------------------|
------------------------------------------------|
------------------------------------------------|
------------------------------------------------|

 ph phph
----17----14--14-------------------|
-17b--17r---15--17-15-17-15-14--14-|
------------------------------16---|
-----------------------------------|
-----------------------------------|
-----------------------------------|

------------------------|
------------------------|
-ph--phpmphpmph---------|
-14^-12--14--12-14b-14b-|
-------14--14-----------|
------------------------|

------------------------------------|
-12------14-10--15-----17--19--20---|
---11-14b-----11--12b.5--15--16--16-|
------------------------------------|
------------------------------------|
------------------------------------|

--------------------------------------19/21-|
-19h20p19p17--21h22p21p19--19-21-22b--18/20-|
------------19-----------21-------pb20------|
--------------------------------------------|
--------------------------------------------|
--------------------------------------------|
Tap to rate this tab
 
# A B C D E F G H I J K L M N O P Q R S T U V W X Y Z