Song name
# A B C D E F G H I J K L M N O P Q R S T U V W X Y Z

Five Finger Death Punch - War Is The Answer tab

C#|------------------------------------------------------------------|
G#|------------------------------------------------------------------|
E |------------------------------------------------------------------|
B |--2--2-2--2-2--2------------------2--2-2--2-2--2-2--2---0-7--0-3--| 
F#|--2--2-2--2-2--2------------------2--2-2--2-2--2-2--2---0-7--0-3--|
B |--2--2-2--2-2--2--8-7p-x-7p6-5-4--2--2-2--2-2--2-2--2---0-7--0-3--|
        *    *    *             * *     *    *    *        *    *     

C#|---------------------------------------------------------------------|
G#|---------------------------------------------------------------------|
E |---------------------------------------------------------------------|
B |--2--2-2--2-2--2------------------2--2-2--2-2--2-2--2---443443443----| 
F#|--2--2-2--2-2--2------------------2--2-2--2-2--2-2--2---443443443-3*-|
B |--2--2-2--2-2--2--8-7p-x-7p6-5-4--2--2-2--2-2--2-2--2---443443443----|
        *    *    *             * *     *    *    *        *********    
                                     "YEAAAAAAAAAAAHHHHHHHHHHHHH- GO"  

C#|------------------------------------------------------------------|
G#|------------------------------------------------------------------|
E |------------------------------------------------------------------|
B |--2--2-2--2-2--2------------------2--2-2--2-2--2-2--2---0-7--0-3--| 
F#|--2--2-2--2-2--2------------------2--2-2--2-2--2-2--2---0-7--0-3--|
B |--2--2-2--2-2--2--8-7p-x-7p6-5-4--2--2-2--2-2--2-2--2---0-7--0-3--|
        *    *    *             * *     *    *    *        *    *     

C#|--------------------------------------------------------------------|
G#|--------------------------------------------------------------------|
E |--------------------------------------------------------------------|
B |--2--2-2--2-2--2-----------------2--2-2--2-2--2-2--2---443443443----| 
F#|--2--2-2--2-2--2-----------------2--2-2--2-2--2-2--2---443443443-3*-|
B |--2--2-2--2-2--2--8-7-x-7p6-5-4--2--2-2--2-2--2-2--2---443443443----|
        *    *    *            * *     *    *    *        *********    

C#|-----------------------------------------------------------------|
G#|-----------------------------------------------------------------|
E |-----------------------------------------------------------------|
B |--2--2-2--2-2--2------------------2--2-2--2-2--2-2--2---0-7--0-3--| X3
F#|--2--2-2--2-2--2------------------2--2-2--2-2--2-2--2---0-7--0-3--|
B |--2--2-2--2-2--2--8-7p-x-7p6-5-4--2--2-2--2-2--2-2--2---0-7--0-3--|
        *    *    *             * *     *    *    *        *    *     
            
C#|---------------------------------------------------------------------|
G#|---------------------------------------------------------------------|
E |---------------------------------------------------------------------|
B |--2--2-2--2-2--2------------------2--2-2--2-2--2-2--2---443443443----| 
F#|--2--2-2--2-2--2------------------2--2-2--2-2--2-2--2---443443443----|
B |--2--2-2--2-2--2--8-7p-x-7p6-5-4--2--2-2--2-2--2-2--2---443443443-3*-|
        *    *    *             * *     *    *    *        *********       

C#|-----------------------------------------------------------------|
G#|-----------------------------------------------------------------|
E |-----------------------------------------------------------------|
B |-----------------------------------------------------------------| 
F#|--------------------------------------------------3333-----------|
B |-00-12>13-10>12-0-12>13-10>12-0-12>13-10>12-------3333-----------|
    **             *                                 ****

That's all I've got, feel free to use this and improve it if you want to make the full tab.
Tap to rate this tab
 
# A B C D E F G H I J K L M N O P Q R S T U V W X Y Z