Song name
# A B C D E F G H I J K L M N O P Q R S T U V W X Y Z

Five Finger Death Punch - No One Gets Left Behind tab

-----------------------------------------------------------------------------
			     No One Gets Left Behind - FFDP
-----------------------------------------------------------------------------
Tabbed by: sonofguido - 04/29/2011
Email: wazevedo913@gmail.com

Tuning: Drop B (On my amp, guitar is tuned B-Gb-B-E-Ab-Db)

This is my version, what I hear playing it.  Some parts could possibly be missing, 
especially during the Chorus-Guitar 1 as its hard for me to hear.  Please feel 
free to leave comments/corrections.  Just listen to the song for rhythm and enjoy.

Intro
Guitar 1
C#|-----------------------------------------------------------------|
G#|-----------------------------------------------------------------|
E |-----17-16----17-16----17-16----17-16----17-16----17-16----------|  repeat
B |--14-------14-------14-------14-------14-------14----------------|    x4
F#|-----------------------------------------------------------------|
B |-----------------------------------------------------------------|

Guitar 2
C#|-----------------------------------------------------------------|
G#|-----------------------------------------------------------------|
E |-----------------------------------------------------------------|  repeat
B |--0h2--3p2--0h2---------0h2--3p2--0h2----------------------------|    x2
F#|--0h2--3p2--0h2---------0h2--3p2--0h2--0-0-0--575757-------------|
B |--0h2--3p2--0h2---------0h2--3p2--0h2--0-0-0--575757-------------|
                                          x x x  xxxxxx
C#|-----------------------------------------------------------------|
G#|-----------------------------------------------------------------|
E |-----------------------------------------------------------------|  repeat
B |--0h2--3p2--0h2--------------------------------------------------|    x8
F#|--0h2--3p2--0h2--0-0-0--575757-----------------------------------|
B |--0h2--3p2--0h2--0-0-0--575757-----------------------------------|
                    x x x  xxxxxx

Verse
Guitar 1
C#|-----------------------------------------------------------------|
G#|-----------------------------------------------------------------|
E |-----17-16----17-16----17-16----17-16----17-16----17-16----------|  repeat
B |--14-------14-------14-------14-------14-------14----------------|    x3
F#|-----------------------------------------------------------------|
B |-----------------------------------------------------------------|

C#|-----------------------------------------------------------------|
G#|-----------------------------------------------------------------|
E |-----17-16----17-16----17-16----17-16----17-16----17-16-14-14/12-|  
B |--14-------14-------14-------14-------14-------14----------------|    
F#|-----------------------------------------------------------------|
B |-----------------------------------------------------------------|

Guitar 2
C#|-----------------------------------------------------------------|
G#|-----------------------------------------------------------------|
E |-----------------------------------------------------------------|
B |--0h2--3p2--0h2--------0h2--3p2--0h2-----------------------------|
F#|--0h2--3p2--0h2--------0h2--3p2--0h2----575757-------------------|
B |--0h2--3p2--0h2--------0h2--3p2--0h2----575757-------------------|
                                           xxxxxx
C#|-----------------------------------------------------------------|
G#|-----------------------------------------------------------------|
E |-----------------------------------------------------------------|
B |--0h2--3p2--0h2--------0h2--3p2--0h2-----------------------------|
F#|--0h2--3p2--0h2--------0h2--3p2--0h2-----------------------------|
B |--0h2--3p2--0h2--------0h2--3p2--0h2-----------------------------|
					
Chorus
Guitar 1
C#|-----------------------------------------------------------------|
G#|-------------------8-8h10------------------8-8h10----------------|
E |--7h9-9-9--7h9-9-9--------7h9-9-9--7h9-9-9-----------------------|
B |-----------------------------------------------------------------|
F#|-----------------------------------------------------------------|
B |-----------------------------------------------------------------|

C#|-----------------------------------------------------------------|
G#|-----------------------------------------------------------------|
E |--7h9-9-9--7h9-9---9-7-5-4---------------------------------------| repeat 
B |---------------------------7-5-----------------------------------|    x1
F#|-----------------------------------------------------------------|
B |-----------------------------------------------------------------|

Guitar 2
C#|-----------------------------------------------------------------|
G#|-----------------------------------------------------------------|
E |-----------------------------------------------------------------|
B |--70070070070077---50050050050055--30030030030033--2020-5r-------|
F#|--70070070070077---50050050050055--30030030030033--2020-5r-------|
B |--70070070070077---50050050050055--30030030030033--2020-5r-------|
      xx xx xx xx      xx xx xx xx     xx xx xx xx     x x
C#|-----------------------------------------------------------------|
G#|-----------------------------------------------------------------|
E |-----------------------------------------------------------------|
B |--70070070070077---50050050050055--30030030030033--2020-2--5-5-5-|
F#|--70070070070077---50050050050055--30030030030033--2020-2--5-5-5-|
B |--70070070070077---50050050050055--30030030030033--2020-2--5-5-5-|
      xx xx xx xx      xx xx xx xx     xx xx xx xx     x x

Post Chorus
C#|-----------------------------------------------------------------|
G#|-----------------------------------------------------------------|
E |-----------------------------------------------------------------|  repeat
B |--0h2--3p2--0h2--------------------------------------------------|    x4
F#|--0h2--3p2--0h2--0-0-0--575757-----------------------------------|
B |--0h2--3p2--0h2--0-0-0--575757-----------------------------------|
                    x x x  xxxxxx

Verse 2
Guitar 1
C#|-----------------------------------------------------------------|
G#|-----------------------------------------------------------------|
E |-----17-16----17-16----17-16----17-16----17-16----17-16----------|  repeat
B |--14-------14-------14-------14-------14-------14----------------|    x3
F#|-----------------------------------------------------------------|
B |-----------------------------------------------------------------|

C#|-----------------------------------------------------------------|
G#|-----------------------------------------------------------------|
E |-----17-16----17-16----17-16----17-16----17-16----17-16-14-14/12-|  
B |--14-------14-------14-------14-------14-------14----------------|    
F#|-----------------------------------------------------------------|
B |-----------------------------------------------------------------|

Guitar 2
C#|-----------------------------------------------------------------|
G#|-----------------------------------------------------------------|
E |-----------------------------------------------------------------|
B |--0h2--3p2--0h2--------0h2--3p2--0h2-----------------------------|
F#|--0h2--3p2--0h2--------0h2--3p2--0h2----575757-------------------|
B |--0h2--3p2--0h2--------0h2--3p2--0h2----575757-------------------|
                                           xxxxxx
C#|-----------------------------------------------------------------|
G#|-----------------------------------------------------------------|
E |-----------------------------------------------------------------|
B |--0h2--3p2--0h2--------0h2--3p2--0h2-----------------------------|
F#|--0h2--3p2--0h2--------0h2--3p2--0h2-----------------------------|
B |--0h2--3p2--0h2--------0h2--3p2--0h2-----------------------------|
 
Chorus
Guitar 1
C#|-----------------------------------------------------------------|
G#|-------------------8-8h10------------------8-8h10----------------|
E |--7h9-9-9--7h9-9-9--------7h9-9-9--7h9-9-9-----------------------|
B |-----------------------------------------------------------------|
F#|-----------------------------------------------------------------|
B |-----------------------------------------------------------------|

C#|-----------------------------------------------------------------|
G#|-----------------------------------------------------------------|
E |--7h9-9-9--7h9-9---9-7-5-4---------------------------------------| repeat 
B |---------------------------7-5-----------------------------------|    x1
F#|-----------------------------------------------------------------|
B |-----------------------------------------------------------------|

Guitar 2
C#|-----------------------------------------------------------------|
G#|-----------------------------------------------------------------|
E |-----------------------------------------------------------------|
B |--70070070070077---50050050050055--30030030030033--2020-5r-------|
F#|--70070070070077---50050050050055--30030030030033--2020-5r-------|
B |--70070070070077---50050050050055--30030030030033--2020-5r-------|
      xx xx xx xx      xx xx xx xx     xx xx xx xx     x x
C#|-----------------------------------------------------------------|
G#|-----------------------------------------------------------------|
E |-----------------------------------------------------------------|
B |--70070070070077---50050050050055--30030030030033--2020-2--5-5-5-|
F#|--70070070070077---50050050050055--30030030030033--2020-2--5-5-5-|
B |--70070070070077---50050050050055--30030030030033--2020-2--5-5-5-|
      xx xx xx xx      xx xx xx xx     xx xx xx xx     x x

Bridge
C#|-----------------------------------------------------------------|
G#|-----------------------------------------------------------------|
E |-----------------------------------------------------------------|
B |--0-3-2-0-3-2-0-3-2-0-3------0-3-2-0-3-2-0-3-2-0-3---------------|
F#|--0-3-2-0-3-2-0-3-2-0-3------0-3-2-0-3-2-0-3-2-0-3---------------|
B |--0-3-2-0-3-2-0-3-2-0-3------0-3-2-0-3-2-0-3-2-0-3---------------|
     x x x x x x x x x x x      x x x x x x x x x x x			   
C#|-----------------------------------------------------------------|
G#|-----------------------------------------------------------------|
E |-----------------------------------------------------------------|
B |--0-3-2-0-3-2-0-3-2-0-3------0-3-2-0-3-2-0-3-2-0-3-2-0-3-2-0-0---|  repeat
F#|--0-3-2-0-3-2-0-3-2-0-3------0-3-2-0-3-2-0-3-2-0-3-2-0-3-2-0-0---|    x1
B |--0-3-2-0-3-2-0-3-2-0-3------0-3-2-0-3-2-0-3-2-0-3-2-0-3-2-0-0---| 
     x x x x x x x x x x x      x x x x x x x x x x x x x x x x x
C#|-----------------------------------------------------------------|
G#|-----------------------------------------------------------------|
E |-----17-16----17-16----17-16----17-16----17-16----17-16-14-14/12-|  
B |--14-------14-------14-------14-------14-------14----------------|    
F#|-----------------------------------------------------------------|
B |-----------------------------------------------------------------|

Chorus
Guitar 1
C#|-----------------------------------------------------------------|
G#|-------------------8-8h10-------------------8-8h10---------------|
E |--7h9-9-9--7h9-9-9---------7h9-9-9--7h9-9-9----------------------|
B |-----------------------------------------------------------------|
F#|-----------------------------------------------------------------|
B |-----------------------------------------------------------------|

C#|-----------------------------------------------------------------|
G#|-----------------------------------------------------------------|
E |--7h9-9-9--7h9-9---9-7-5-4---------------------------------------| repeat 
B |---------------------------7-5-----------------------------------|    x1
F#|-----------------------------------------------------------------|
B |-----------------------------------------------------------------|

Guitar 2
C#|-----------------------------------------------------------------|
G#|-----------------------------------------------------------------|
E |-----------------------------------------------------------------|
B |--70070070070077---50050050050055--30030030030033--2020-5r-------|
F#|--70070070070077---50050050050055--30030030030033--2020-5r-------|
B |--70070070070077---50050050050055--30030030030033--2020-5r-------|
      xx xx xx xx      xx xx xx xx     xx xx xx xx     x x
C#|-----------------------------------------------------------------|
G#|-----------------------------------------------------------------|
E |-----------------------------------------------------------------|
B |--70070070070077---50050050050055--30030030030033--2020-2--5-5-5-|
F#|--70070070070077---50050050050055--30030030030033--2020-2--5-5-5-|
B |--70070070070077---50050050050055--30030030030033--2020-2--5-5-5-|
      xx xx xx xx      xx xx xx xx     xx xx xx xx     x x

Post Chorus
C#|-----------------------------------------------------------------|
G#|-----------------------------------------------------------------|
E |-----------------------------------------------------------------|  repeat
B |--0h2--3p2--0h2--------------------------------------------------|    x4
F#|--0h2--3p2--0h2--0-0-0--575757-----------------------------------|
B |--0h2--3p2--0h2--0-0-0--575757-----------------------------------|
                    x x x  xxxxxx

Outro
Guitar 1
C#|-----------------------------------------------------------------|
G#|-----------------------------------------------------------------|
E |-----17-16----17-16----17-16----17-16----17-16----17-16----------|  repeat
B |--14-------14-------14-------14-------14-------14----------------|    x4
F#|-----------------------------------------------------------------|
B |-----------------------------------------------------------------|

Guitar 2
C#|-----------------------------------------------------------------|
G#|-----------------------------------------------------------------|
E |-----------------------------------------------------------------|  repeat
B |--0h2--3p2--0h2---------0h2--3p2--0h2----------------------------|    x2
F#|--0h2--3p2--0h2---------0h2--3p2--0h2--------575757--------------|
B |--0h2--3p2--0h2---------0h2--3p2--0h2--------575757--------------|
                                                xxxxxx
C#|-----------------------------------------------------------------|
G#|-----------------------------------------------------------------|
E |-----------------------------------------------------------------|  
B |--0h2--3p2--0h2--------------------------------------------------|    
F#|--0h2--3p2--0h2--------------------------------------------------|
B |--0h2--3p2--0h2--------------------------------------------------|
	          

************************************
| /     slide up
| \     slide down
| h     hammer-on
| p     pull-off
| r     ring-out
| ~     vibrato
| +     harmonic
| x     Mute note
| b     Bend
| pb    Pre-bend
| br    Bend release
| pbr   Pre-bend release
| brb   Bend release bend

************************************

Lyrics

No one gets left behind, another fallen soul
No one gets left behind, another broken home
No one gets left behind, we stand and fight together
No one gets left behind, but we all die alone

Politicians bathing in their greed
No idea on how to be all they can be

Have you no honor? Have you no soul?
What is it they're dying for, do you really even know?
Have you no backbone? Have you no spine?
Whatever happened to no one gets left behind?

No one gets left behind, I know you made it up
No one gets left behind, it's war for money
No one gets left behind, drink from the golden cup
No one gets left behind, you're time is coming

Play your war games with other people's lives
It should be you on the front-line

Have you no honor? Have you no soul?
What is it they're dying for, do you really even know?
Have you no backbone? Have you no spine?
What ever happened to no one gets left behind

Have you no honor? Have you no soul?
What is it they're dying for, do you really even know?
Have you no backbone? Have you no spine?
Whatever happened to no one gets left behind?

No one gets left behind
No one gets left behind
No one gets left behind
No one gets left behind
No one gets left behind
Tap to rate this tab
 
# A B C D E F G H I J K L M N O P Q R S T U V W X Y Z