Song name
# A B C D E F G H I J K L M N O P Q R S T U V W X Y Z

Five Finger Death Punch - Crossing Over tab

Tuning: B Tuning (BEADF#B)
Song: Crossing Over
Artist: Five Finger Death Punch
Album: War Is The Answer
____________________________________

This is my first tab submission. Enjoy!

Let all notes ring out, it sounds better :D

Tempo is 198		     
B ||----------------------|----------------------|----------------------|
F#||-----------------0----|----------------------|-----------------0----|
D ||------------2---------|-------2--------------|------------0---------|
A ||-------2--------------|------------2---------|-------2--------------|
E ||--0-------------------|-----------------0----|--3-------------------|
B ||----------------------|----------------------|----------------------|


  Q    Q    Q    Q              
----------------------||
----------------------||
-----------------0----||
------------5---------||
-------5--------------||
--3-------------------||
Tap to rate this tab
 
# A B C D E F G H I J K L M N O P Q R S T U V W X Y Z