Song name
# A B C D E F G H I J K L M N O P Q R S T U V W X Y Z

Five Finger Death Punch - Hate Me tab

Db|----------------------------------------------------------------------|
Ab|----------------------------------------------------------------------|
E|-----------------------------------------------------------------------|
B|----0------0-----------6-6-6-6-----------------------------------------|
Gb|---0------0---0---0---5-5-5-5-----------------------------------------|
B|----0-0-0-0-0-0-0-0-0-0------------------------------------------------|


Chorus - listen to get the rhythm
Db|------------------------------------------------------------------|
Ab|------------------------------------------------------------------|
E|-------------------------------------------------------------------|
B|---5---1----8---3--------------------------------------------------|
Gb|--5---1----8---3--------------------------------------------------|
B|---5---1----8---3--------------------------------------------------|

Verse I
Db|-----------------|-----------------------------------------------|
Ab|-----------------|-----------------------------------------------|
E|-----7---5-7------| X3 ------8---7-5------------------------------|
B|-------0-----0-8--|------------0-----8----------------------------|
Gb|-----------------|-----------------------------------------------|
B|------------------|-----------------------------------------------|


Verse pt II
Db|----------------------------------------------------------------------|
Ab|----------------------------------------------------------------------|
E|-----------------------------------------------------------------------|
B|----0------0-----------6-6-6-6-----------------------------------------|
Gb|---0------0---0---0---5-5-5-5-----------------------------------------|
B|----0-0-0-0-0-0-0-0-0-0------------------------------------------------|

I'm not a "solo" person haha!
its all palm muting the b string for the rhythm part aty the end of it, just 
listen for the rhythm.
Tap to rate this tab
# A B C D E F G H I J K L M N O P Q R S T U V W X Y Z