Song name
# A B C D E F G H I J K L M N O P Q R S T U V W X Y Z

Five Finger Death Punch - Under And Over It tab

Song: Under and Over It
Artist: Five Finger Death Punch
Tuning: B Standard (B E A D F# B)
Tabbed By: THE_distured_1
Email: darhode@gmail.com

Well here is Under and Over It. I've seen so many requests for this song
to be tabbed out that I finally got my act together and started to work
on it. I have only been playing for about 7 months as of this writing 
so I did have to get a little help from You Tube. Also some might be wodering
why this is in B Standard tuning. This is because Five Finger Death Punch
uses B Standard, not Drop B. If you want it in Drop B, then transcribe it
on your own. Any corrections are gladly welcomed. I am not 100% sure if this
is right, particularly the solo, but I did my best with the time given.
Other than that here is the song.

Intro
x4
|--------------------------------|
|--------------------------------|
|--------------------------------|
|--------------------------------|
|5--------------3-2--------------|
|3-0-0-0-000000-1-0-0-0-0-000000-|
   . . . ......     . . . ...... 

Pre-Verse 1
x2
|----------------|----------------|----------------|-------------------|
|----------------|----------------|----------------|-------------------|
|----------------|----------------|----------------|9-9-9-9-9-10-10-10\|
|----------------|----------------|----------------|-------------------|
|3---3---3-5-3-2-|3---3---3-5-3---|3---3---3-5-3---|7-7-7-7-7-8--8--8-\|
|1---1---1-3-1-0-|1---1---1-3-1---|1---1---1-3-1---|-------------------|
               . 
                               
Verse 1
x3
|----------------|----------------|----------------|-------------------|
|----------------|----------------|----------------|-------------------|
|----------------|----------------|----------------|9-9-9-9-9-10-10-10\|
|----------------|----------------|----------------|-------------------|
|2---2---2-3-2-2-|2---2---2-3-2---|2---2---2-3-2---|7-7-7-7-7-8--8--8-\|
|0---0---0-1-0-0-|0---0---0-1-0---|0---0---0-1-0---|-------------------|
               .      
                          
x1
|----------------|----------------|----------------|----------------------|
|----------------|----------------|----------------|----------------------|
|----------------|----------------|----------------|9-9-11-11-12-12-10-10\|
|----------------|----------------|----------------|----------------------|
|2---2---2-3-2---|--------2-3-2---|2---2---2-3-2---|7-7-9--9--10-10-8--8-\|
|0---0---0-1-0---|--------0-1-0---|0---0---0-1-0---|----------------------|                  

Chorus 1
|----------------------------------|
|----------------------------------|
|----------------------------------|
|9---7-----7---------5-----5-----5-|
|7---5-----5---7-----3-----3-----3-|
|------000-----5-000---000---000---|
       ...       ...   ...   ...

|----------------------------------|
|----------------------------------|
|----------------------------------|
|9---7-----7---------5-------------|
|7---5-----5---7-----3-------------|
|------000-----5-000---00000300300-|
       ...       ...   ...........

|--------------------------------|
|--------------------------------|
|--------------------------------|
|9---7-----7---------5-----5---5-|
|7---5-----5---7-----3-----3---3-|
|------000-----5-000---000-------|
       ...       ...   ...  

|----------------------------------|
|----------------------------------|
|----------------------------------|
|9---7-----7---------5-----5-----5-|
|7---5-----5---7-----3-----3-----3-|
|------000-----5-000---000---000---|
       ...       ...   ...   ...

Pre-Verse 2
x2
|----------------|----------------|----------------|-------------------|
|----------------|----------------|----------------|-------------------|
|----------------|----------------|----------------|9-9-9-9-9-10-10-10\|
|----------------|----------------|----------------|-------------------|
|3---3---3-5-3-2-|3---3---3-5-3---|3---3---3-5-3---|7-7-7-7-7-8--8--8-\|
|1---1---1-3-1-0-|1---1---1-3-1---|1---1---1-3-1---|-------------------|
               . 
                               
Verse 2
x3
|----------------|----------------|----------------|-------------------|
|----------------|----------------|----------------|-------------------|
|----------------|----------------|----------------|9-9-9-9-9-10-10-10\|
|----------------|----------------|----------------|-------------------|
|2---2---2-3-2-2-|2---2---2-3-2---|2---2---2-3-2---|7-7-7-7-7-8--8--8-\|
|0---0---0-1-0-0-|0---0---0-1-0---|0---0---0-1-0---|-------------------|
               .      
                          
x1
|----------------|----------------|----------------|----------------|
|----------------|----------------|----------------|----------------|
|----------------|----------------|----------------|----------------|
|----------------|----------------|----------------|----------------|
|2---2---2-3-2---|--2-3-2--2-3-2--|2---2---2-3-2---|----------------|
|0---0---0-1-0---|--0-1-0--0-1-0--|0---0---0-1-0---|----------------|                  

Chorus 2
|----------------------------------|
|----------------------------------|
|----------------------------------|
|9---7-----7---------5-----5-----5-|
|7---5-----5---7-----3-----3-----3-|
|------000-----5-000---000---000---|
       ...       ...   ...   ...

|----------------------------------|
|----------------------------------|
|----------------------------------|
|9---7-----7---------5-------------|
|7---5-----5---7-----3-------------|
|------000-----5-000---00000300300-|
       ...       ...   ...........

|--------------------------------|
|--------------------------------|
|--------------------------------|
|9---7-----7---------5-----5---5-|
|7---5-----5---7-----3-----3---3-|
|------000-----5-000---000-------|
       ...       ...   ...  

|----------------------------------|
|----------------------------------|
|----------------------------------|
|9---7-----7---------5-----5-----5-|
|7---5-----5---7-----3-----3-----3-|
|------000-----5-000---000---000---|
       ...       ...   ...   ...

Pre-Solo
|----------------|----------------|----------------|------------|
|----------------|----------------|----------------|------------|
|----------------|----------------|----------------|------------|
|----------------|----------------|----------------|------------|
|2---------3-2---|2---------3-2---|2---------3-2---|5-5-5-3-3-3-|
|0-0000000-1-0---|0-0000000-1-0---|0-0000000-1-0---|3-3-3-1-1-1-|
   .......          .......          .......        . . . . . .

|----------------|----------------|----------------|--------------|
|----------------|----------------|----------------|--------------|
|----------------|----------------|----------------|------------\-|
|----------------|----------------|----------------|--------------|
|2---------3-2---|2---------3-2---|2---------3-2---|5-5-5-3-3-3---|
|0-0000000-1-0---|0-0000000-1-0---|0-0000000-1-0---|3-3-3-1-1-1---|
   .......          .......          .......        . . . . . .

SOLO

|----------------------------------------------7-----5-----5----|
|------------------------------------------------8-----6--------|
|14-16-12-12-14-14-10-10-12-12-8-8-10-10-12~-9-----7-----7---7~-|
|---------------------------------------------------------------|
|---------------------------------------------------------------|
|---------------------------------------------------------------|

|----------------------------------------------7-----5-------------|
|------------------------------------------------8----------14-15~-|
|14-16-12-12-14-14-10-10-12-12-8-8-10-10-12~-9-----7---7-7---------|
|------------------------------------------------------------------|
|------------------------------------------------------------------|
|------------------------------------------------------------------|

|-----------------------------------------------------------------19-22b~-|
|15-------15--------15-------15-----------------------------17-20---------|
|---14-12----14-12-----14-12----14-12----------12~-15-17-17---------------|
|-------------------------------------10\12-14----------------------------|
|-------------------------------------------------------------------------|
|-------------------------------------------------------------------------|

SOLO Rhythm
|----------------|----------------|----------------|----------------|
|----------------|----------------|----------------|----------------|
|----------------|----------------|----------------|----------------|
|2---2---2-3-2-2-|2---2---2-3-2---|2---2---2-3-2---|----------------|
|0---0---0-1-0-0-|0---0---0-1-0---|0---0---0-1-0---|----------------|
                .

|----------------|----------------|----------------|----------------|
|----------------|----------------|----------------|----------------|
|----------------|----------------|----------------|----------------|
|2---2---2-3-2-2-|2---2---2-3-2---|2---2---2-3-2---|----------------|
|0---0---0-1-0-0-|0---0---0-1-0---|0---0---0-1-0---|----------------|
                .

|----------------|----------------|----------------|----------------|
|----------------|----------------|----------------|----------------|
|----------------|----------------|----------------|----------------|
|2---2---2-3-2-2-|2---2---2-3-2---|2---2---2-3-2---|----------------|
|0---0---0-1-0-0-|0---0---0-1-0---|0---0---0-1-0---|----------------|
                .

|----------------|----------------|----------------|----------------------|
|----------------|----------------|----------------|----------------------|
|----------------|----------------|----------------|9-9-11-11-12-12-10-10\|
|----------------|----------------|----------------|----------------------|
|2---2---2-3-2---|--------2-3-2---|2---2---2-3-2---|7-7-9--9--10-10-8--8-\|
|0---0---0-1-0---|--------0-1-0---|0---0---0-1-0---|----------------------|

Chorus 3
|----------------------------------|
|----------------------------------|
|----------------------------------|
|9---7-----7---------5-----5-----5-|
|7---5-----5---7-----3-----3-----3-|
|------000-----5-000---000---000---|
       ...       ...   ...   ...

|----------------------------------|
|----------------------------------|
|----------------------------------|
|9---7-----7---------5-------------|
|7---5-----5---7-----3-------------|
|------000-----5-000---00000300300-|
       ...       ...   ...........

|--------------------------------|
|--------------------------------|
|--------------------------------|
|9---7-----7---------5-----5---5-|
|7---5-----5---7-----3-----3---3-|
|------000-----5-000---000-------|
       ...       ...   ...  

|----------------------------------|
|----------------------------------|
|----------------------------------|
|9---7-----7---------5-----5-----5-|
|7---5-----5---7-----3-----3-----3-|
|------000-----5-000---000---000---|
       ...       ...   ...   ...

|----------------------------------|
|----------------------------------|
|----------------------------------|
|9---7-----7---------5-----5-----5-|
|7---5-----5---7-----3-----3-----3-|
|------000-----5-000---000---000---|
       ...       ...   ...   ...

Outro
|----------------|----------------|----------------|------------|
|----------------|----------------|----------------|------------|
|----------------|----------------|----------------|------------|
|----------------|----------------|----------------|------------|
|2---------3-2---|2---------3-2---|2---------3-2---|5-5-5-3-3-3-|
|0-0000000-1-0---|0-0000000-1-0---|0-0000000-1-0---|3-3-3-1-1-1-|
   .......          .......          .......        . . . . . .

|----------------|----------------|----------------|------------|
|----------------|----------------|----------------|------------|
|----------------|----------------|----------------|------------|
|----------------|----------------|----------------|------------|
|2---------3-2---|2---------3-2---|2---------3-2---|5-5-5-2-2-2-|
|0-0000000-1-0---|0-0000000-1-0---|0-0000000-1-0---|3-3-3-0-0-0-|
   .......          .......          .......        . . . . . .

END
Tap to rate this tab
# A B C D E F G H I J K L M N O P Q R S T U V W X Y Z