Song name
# A B C D E F G H I J K L M N O P Q R S T U V W X Y Z

Five Finger Death Punch - Crossing Over tab

Hey. This is my first tab so bare with me. This does not have the solo.(sorry 
'bout that)This does have the chorus though. THE TUNING IS WEIRD!!

tuning: E
        B
       *G♭*
        D
        A
        D

Intro/Verse

E |----------------|---------|-----------|x6
B |o---------------|---------|----------o|
G |--------0-------|-------0-|-------0---|
D |------2---2-----|-----0---|-----0-----|
A |o---2-------2---|---5-----|---0------o|
D |--2-----------2-|-5-------|-0---------|

E |-------------|----------------|------------|----------------|
B |--------0----|---------0------|-------5----|--------5-------|
G |------1---1--|-----1-----1---1|-----3---3--|----3------3---3|
D |----2-------2|---2---2-----2--|---4-------4|--4---4------4--|
A |--3----------|-3--------------|-5----------|5---------------|
D |-------------|----------------|------------|----------------|

Chorus

E |-----------------------------|x2
B |o---------------------------o|
G |-----------------------------|
D |-----------------------------|
A |o-9~-9-2/4-0~-5~---5--2~----o|
D |--9~-9-2/4-0~-5~-555552~--7--|
                P.M.-| -|

*Solo coming soon!*
Tap to rate this tab
# A B C D E F G H I J K L M N O P Q R S T U V W X Y Z