Song name
# A B C D E F G H I J K L M N O P Q R S T U V W X Y Z

Five Finger Death Punch - Bad Company tab

-----------------------------------------------------------------------------
Bad Company – Five Finger Death Punch
-----------------------------------------------------------------------------
Tabbed by: jmguitarman9523
Tuning: Standard

Intro/break
        Bm           Bm            Bm
e|------------------------------------------------|
B|------------3-----------3-----------3-----------|
G|---------------4-----------4-----------4--------| x2
D|----------4-----------4-----------4-------------|
A|----0--2-----------2-----------2----------------|
E|-2----------------------------------------------|

Verse
        Bm                      A               Bm
e|---------------------------------------------------------------------------|
B|-------------3----------------2-----0----------3-----3-------3-------------|
G|---------4-----4---4------2-----2----------4-----4---------4---------------|
D|-------4---4-----4------2---2-----2------4---4-----4-----4-----------------|
A|---0-2----------------0----------------2---------------2-------------------|
E|-2-------------------------------------------------------------------------|

        Bm                      A               Bm                 A
e -------------------------------------------------------------------------|
B ------------3----------------2-----0----------3----------------2-----0---|
G ---------4-----4---4------2-----2----------4-----4---4------2-----2------|
D -------4---4-----4------2---2-----2------4---4-----4------2---2-----2----|
A ---0-2----------------0---------------2-----------------0----------------|
E -2-----------------------------------------------------------------------|

                Bm
e ------------------2-----------|
B ----------2h3p3-----2h3-------|
G -----4----------4-------4-----| x2
D ---4---4------------------4---|
A -2----------------------------|
E ------------------------------|


Chorus
e|---------------------------------------------------------------------------|
B|---------------------------------------------------------------------------|
G|---------------------------------------------------------------------------|
D|-44--44---2(let ring)--------------------------2-4--------2-4-------2-4----|
A|-22--22---0--------------2(let ring)-2---------0-2--------0-2-------0-2----|
E|-------------------------0-----------0---0--00------0--00-----0--00-----00-|

e|--------------------------------------------------------------------------|
B|--------------------------------------------------------------------------|
G|--------------------------------------------------------------------------|
D|-7(let ring)--------------------------------------------------------------|
A|-5-------------2(let ring)-2--------5p4p2-----2h4h5p3p2----5p4p2----------|
E|---------------0-----------0--0-00--------00------------0---------0-------|

e ---------------------------------------------------|
B ---------------------------------------------------|
G ---------------------------------------------------|
D ----------------------------------------4(let ring)|
A -2h4h5p4p2---------5p4p2----2h4h5p4p2---2----------|
E ------------0--00--------0-------------------------|


Intro/break
        Bm           Bm            Bm
e|------------------------------------------------|
B|------------3-----------3-----------3-----------|
G|---------------4-----------4-----------4--------| x2
D|----------4-----------4-----------4-------------|
A|----0--2-----------2-----------2----------------|
E|-2----------------------------------------------|


Verse
        Bm                      A               Bm
e|---------------------------------------------------------------------------|
B|-------------3----------------2-----0----------3-----3-------3-------------|
G|---------4-----4---4------2-----2----------4-----4---------4---------------|
D|-------4---4-----4------2---2-----2------4---4-----4-----4-----------------|
A|---0-2----------------0----------------2---------------2-------------------|
E|-2-------------------------------------------------------------------------|

        Bm                      A               Bm                 A
e -------------------------------------------------------------------------|
B ------------3----------------2-----0----------3----------------2-----0---|
G ---------4-----4---4------2-----2----------4-----4---4------2-----2------|
D -------4---4-----4------2---2-----2------4---4-----4------2---2-----2----|
A ---0-2----------------0---------------2-----------------0----------------|
E -2-----------------------------------------------------------------------|

                Bm
e ------------------2-----------|
B ----------2h3p3-----2h3-------|
G -----4----------4-------4-----| x2
D ---4---4------------------4---|
A -2----------------------------|
E ------------------------------|


Second Chorus
e|---------------------------------------------------------------------------|
B|---------------------------------------------------------------------------|
G|---------------------------------------------------------------------------|
D|-44--44---2(let ring)--------------------------2-4--------2-4-------2-4----|
A|-22--22---0--------------2(let ring)-2---------0-2--------0-2-------0-2----|
E|-------------------------0-----------0---0--00------0--00-----0--00-----00-|

e|--------------------------------------------------------------------------|
B|--------------------------------------------------------------------------|
G|--------------------------------------------------------------------------|
D|-7(let ring)--------------------------------------------------------------|
A|-5-------------2(let ring)-2--------5p4p2-----2h4h5p3p2----5p4p2----------|
E|---------------0-----------0--0-00--------00------------0---------0-------|

e ------------------------------------------------------------------------|
B ------------------------------------------------------------------------|
G ------------------------------------------------------------------------|
D ------------------------------------------------------------------------|
A -2h4h5p4p2-------5p4p2-----2h4h5p3p2----5p4p2----2h4h5p4p2--------------|
E -----------0-00--------00------------0---------0------------------------|

e|--------------------------------------------------------------------------|
B|--------------------------------------------------------------------------|
G|--------------------------------------------------------------------------|
D|--------------------------------------------------------------------------|
A|------5p4p2-----2h4h5p3p2----5p4p2----2h4h5p4p2---------------------------|
E|0-00--------00------------0---------0-------------------------------------|

e|--------------------------------------------------------------------------|
B|--------------------------------------------------------------------------|
G|--------------------------------------------------------------------------|
D|--------------------------------------------------------------------------|
A|------5p4p2-----2h4h5p3p2----5p4p2----2h4h5p4p2---------------------------|
E|0-00--------00------------0---------0-------------------------------------|

Bridge
e|--------------------------------------------------------------------------|
B|--------------------------------------------------------------------------|
G|--------------------------------------------------------------------------|
D|-4--44--4--44--4--44--4--44--4--44--4--44---------------------------------|
A|-2--22--2--22--2--22--0--00--0--00--0--00--5--55--5--55--5--55--5--55--5--|
E|-------------------------------------------3--33--3--35--3--33--2--22--2--|

e|--------------|
B|--------------|
G|--------------|
D|--------------| x2
A|-55--5--55----|
E|-22--2--22----|


The solo consists of two parts.  The first half (low part) is played in an E minor scale
and the second (high part) is played in a G minor scale.  Have fun and improvise over
the solo.  Add your own touch to the song.  You’ll have much more fun doing this than 
staring dazed at your computer learning the original solo; plus you’ll learn to improvise and
solo better.

Solo backing
e|--------------------------------------------------|
B|--------------------------------------------------|
G|--------------------------------------------------| x3
D|---------------------2-4--------2-4-------2-4-----|
A|-5(ring out)---------0-2--------0-2-------0-2-----|
E|-3------------0--00------0--00-----0--00-----0000-|

e|---------------------------------------------|
B|---------------------------------------------|
G|---------------------------------------------|
D|---------------------------------------------|
A|-5(ring out)--44444444--4(hold and fade out--|
E|-3------------22222222--2--------------------|

Intro/break
        Bm           Bm            Bm
e|--------------------------------------------------------------------------|
B|------------3-----------3-----------3-----------------3-----------3-------|
G|---------------4-----------4-----------4-----------------4-----------4----|
D|----------4-----------4-----------4----------------4-----------4----------|
A|----0--2-----------2-----------2-------------0--2-----------2-------------|
E|-2----------------------------------------2-------------------------------|
Tap to rate this tab
# A B C D E F G H I J K L M N O P Q R S T U V W X Y Z