Song name
# A B C D E F G H I J K L M N O P Q R S T U V W X Y Z

Five Finger Death Punch - The Way Of The Fist tab

Five Finger Death Punch
The Way of the Fist
Way of the Fist

B tuning/Baritone
Low to High- B-E-A-D-F#-B
BPM 190

Awesome song one of my favorites, again tuning is set up specifically for a 7 string but 
writing it for a
6 string. Hope you guys enjoy, there are two more tabs on the way and hopefully a few 
more almost done!

Intro/Verse (All Palm Muted)

B |---------------------------------------------------------------------------------|
F#|---------------------------------------------------------------------------------|
D |---------------------------------------------------------------------------------|
A |---------------------------------------------------------------------------------|
E |----------------------------------------------------------5--3--2--0-------------|
B |---0---0---3--2--0--0--0--0--3--2--0--0--0--0--3--2--0---------------5--3--2--0--|

Intro "Break Down"/ Pre Chorus

B |---------------------------------------------------------------------------------|
F#|---------------------------------------------------------------------------------|
D |---------------------------------------------------------------------------------|
A |---------------------------------------------------------------------------------|
E |-----------------------1-------3/4------------5--3--2--0-------------------------|
B |-----0---0----0-0-0-0--3---0---1/2-----0--0---------------0--0--5--3--2--0-------|
        .   .    . . . .      .           .  .   .  .  .  .  .  .  .  .  .  .

Intro Lead (Open the Sky)

B |--10-12-13-12-10-----------------------------------------------------------------|
F#|----------------13-10-10-9-10-12-10-9--------------------------------------------|
D |--------------------------------------10------9-10-------------------------------|
A |-----------------------------------------12-12----12-10-9-----9-9----------------|
E |----------------------------------------------------------11-12---11-12----------|
B |---------------------------------------------------------------------------------|

B |---------------------------------------------------------------------------------|
F#|------------------------------------------------------------8p7------------------|
D |----------------------------------------------------------9---------9p8----------|
A |-6-7-9-7-6---6------------------------------------------9------------------------|
E |------------8---8-7-5---7------5-------3----------7--10--------------------------|
B |----------------------------8------7-------4---5---------------------------------|

B |----------------------------------0-10-12-13-12-10-------------------------------|
F#|------7-8-10-8-7----7/10--10--12------------------13-12-10-9-10-9----------------|
D |----9----------------------------------------------------------------10---9---9/-|
A |--9------------------------------------------------------------------------------|
E |---------------------------------------------------------------------------------|
B |---------------------------------------------------------------------------------|

Chorus

B |---------------------------------------------------------------------------------|
F#|---------------------------------------------------------------------------------|
D |---------------------------------------------------------------------------------|
A |--4---------4---------4-----------4----------------------------------------------|
E |--4---------4---------4-----------4----------5-4-2-0-----------------------------|
B |--2--2-2-2--2--2-2-2--2--2-2---2--2--2-2-2-2-------------------------------------|
        . . .    . . .      . .   .     . . . . . . . .

B |---------------------------------------------------------------------------------|
F#|---------------------------------------------------------------------------------|
D |--2---------2---------2----------------------------------------------------------|
A |--2---------2---------2----------2-4-----------4-4-------------------------------|
E |--0--0-0-0--0--0-0-0--0--0-0-0---0-2--2-2-2-2--2-2--2-2-2-2----------------------|
B |---------------------------------------------------------------------------------|
        . . .     . . .     . . .   . .  . . . .  . .  . . . .

Post Chorus

B |---------------------------------------------------------------------------------|
F#|---------------------------------------------------------------------------------|
D |---------------------------------------------------------------------------------| x2
A |------------------------------6---7----------------------------------------------|
E |-5--7---7--8---5--7---7--8-----------7----8----5--7---7--8---5--7---7--8---------|
B |-0--0---0--0---0--0---0--0---------------------0--0---0--0---0--0---0--0---------|
    .  .   .  .   .  .   .  .    .   .  .    .    .  .   .  .   .  .   .  .

B |---------------------------------------------------------------------------------|
F#|------------------------------------------9--10----------------------------------|
D |--7--9--9--9--10--10--7--9--9--9--10--10--------9--10--7--9--9--9--10--10--7--9--|
A |---------------------------------------------------------------------------------|
E |---------------------------------------------------------------------------------|
B |---------------------------------------------------------------------------------|

B |--------------------------|
F#|---------------9tr10------|
D |--9--9--10----------------|
A |--------------------------|
B |--------------------------|

B |-------------------------------------------------------|-------------------------|
F#|------------------------------------------------------|--------------------------|
D |------------------------------------------------------|--------------------------|
A |--------------------------------6--7------------------|-------------6tr7---0-----|
E |--5--7---7--8---5--7---7--8----------7--8--5--7---x2-|-----7--8------------------|
B |-------0------0------0-------0------------------------|--0-------0---------------|

Solo Time!

Rhythm Solo
B |---------------4-----|----------|------------------|--------------------------------|
F#|-----------7---7-----|----------|---------0--------|----------------0---------------|
D |--------6------------|--6-------|------2-----------|----------------4---------------|
A |--4------------------|------0---|---2-----------4--|------4---------4---------------|
E |---------------------|----------|---------------2--|--------------------------------|
B |---------------------|----------|------------------|--------------------------------|

B |------------2---|--------------|--------------------|-----------------------------|
F#|------------2---|--------------|----------0---------|-----------------------------|
D |----------------|----2---------|----------2---------|-----------------------------|
A |---------4------|----------0---|------2-------------|------4-------4--------------|
E |------4---------|----------0---|---0------------2---|------4-------4--------------|
B |---2------------|--------------|--------------------|-----------------------------|

Just play the Rhythm over the solo, It repeats twice.

Solo!

B |--------------------------------------------------------------------------------|
F#|---7/11-----10----10----9---9h10p9----------------------------------------------|
D |----------------------------------------11----9-----11h9------------------------|
A |--------------------------------------------------------------------------------|
E |--------------------------------------------------------------------------------|
B |--------------------------------------------------------------------------------|

B |--------------12--14--14fb--12----12--------------------------------------------|
F#|----------14--------------------------14----------10--9--10--12fb---------------|
D |--11---14----------------------14--------14--11---------------------------------|
A |--------------------------------------------------------------------------------|
E |--------------------------------------------------------------------------------|
B |--------------------------------------------------------------------------------|

B |-----------------------------------------------------------12--14--14fb---------|
F#|--------------------------------------------------------14-------------14-------|
D |--11----11\--9/14---14--13--13--11--9--11h9---11----14------------------14--11--|
A |--------------------------------------------------------------------------------|
E |--------------------------------------------------------------------------------|
B |--------------------------------------------------------------------------------|

There is a prelude/exit solo, however I'm not sure on it. However playing parts of the 
solo fit nicely, If you figure it out just shoot me a message and I'll credit you and 
edit the tab!

So there it is! Sorry on the delay, life gets a little hectic, more to come eventually!
Tap to rate this tab
# A B C D E F G H I J K L M N O P Q R S T U V W X Y Z