Song name
# A B C D E F G H I J K L M N O P Q R S T U V W X Y Z

Five Finger Death Punch - The Tragic Truth tab

Hey guys, i have not seen any good tabs
for the proper way to play the acoustic
intro/verse for this song, so i'v figured
it out for you, its in A Standard (Drop A
but you tune your Lowest string to match 
The highest string), i hope this helps.


e|----0------------0---------------------0--------------------------------------|
B|0h1---1---1---1---1---------3-3p0---0---0-0-----------------------------------|
G|2-------2-----0----0--0-2---2-2-----0----0------------------------------------|
D|2-------------2-------0-3---3-3-----0-----------------------------------------|
A|0-------------3---------------------------------------------------------------|
E|----------------------0-1-----------3-----------------------------------------|

e|----0------------0---------------------0--------------------------------------|
B|0h1---1---1---1---1---------3-0-----0---0-0-----------------------------------|
G|2-------2-----0----0--0-2---2-2-----0----0------------------------------------|
D|2-------------2-------0-3---3-3-----0-----------------------------------------|
A|0-------------3---------------------------------------------------------------|
E|----------------------0-1-----------3-----------------------------------------|
Tap to rate this tab
# A B C D E F G H I J K L M N O P Q R S T U V W X Y Z