Song name
# A B C D E F G H I J K L M N O P Q R S T U V W X Y Z

Five Finger Death Punch - No One Gets Left Behind tab

Song Title: No One Gets Left Behind
Artist: Five Finger Death Punch
Album: War Is The Answer
Tuning: Drop B (B-F#-B-E-G#-C#)
Guitar 1: Lead
Guitar 2: Rhythm

Tabbed by Chris Sedberry
Email @ chris.sedberry@yahoo.com
Email me if you have any requests or concerns of any of my tablatures or if they need 
corrected. I will get to you ASAP.
[Note]: I didn't copyright this from a 5FDP tablature book, nor did I steal this from 
anyone. I figured out this whole song by listening to it and practicing it constantly.


[Intro] (0:00-0:11)

Gtr 1:
| --------------------------------------------------------------|
| --------------------------------------------------------------|
| ------17-16-------17-16------17-16-------17-16------17-16-14--|
| -14------------14----------14-----------14-----------14-------|    x4
| --------------------------------------------------------------|

Gtr 2:

| -------------------------------------------------------------|
| -------------------------------------------------------------|
| -0-2--3-2--0-2----------0-2--3-2--0-2------------------------|     x2
| -0-2--3-2--0-2----------0-2--3-2--0-2------------3200--------|
| -0-2--3-2--0-2----------0-2--3-2--0-2---0-0-0----------3200--|
             * *  *   ** **   * * **

[Verse] (0:12-0:36)

Gtr 1 & 2:

| --------------------------------------|
| --------------------------------------|
| --------------------------------------|
| -0-2--3-2--0-2------------------------|        x8
| -0-2--3-2--0-2------------3200--------|
| -0-2--3-2--0-2---0-0-0----------3200--|
                           *  *  *   ** **   * ***

Lyrics (Verse):

No one gets left behind - another fallen soul
No one gets left behind - another broken home
No one gets left behind - we stand and fight together
No one gets left behind - but we all die alone

Gtr 1:

 ---------------------------------------------------------------|
| --------------------------------------------------------------|
| ------17-16-------17-16------17-16-------17-16------17-16-14--|
| -14------------14----------14-----------14-----------14-------|    x4
| --------------------------------------------------------------|
| --------------------------------------------------------------|

Gtr 2:

| --------------------------------------------------------------|
| --------------------------------------------------------------|
| --------------------------------------------------------------|
| -0-2--3-2--0-2----------0-2--3-2--0-2-------------------------|     x2
| -0-2--3-2--0-2----------0-2--3-2--0-2------------3200---------|
| -0-2--3-2--0-2----------0-2--3-2--0-2-------------------3200--|


Politicians, bathing in their greed
No idea on how to be all they can be







(Will be continued)
Tap to rate this tab
 
# A B C D E F G H I J K L M N O P Q R S T U V W X Y Z