Song name
# A B C D E F G H I J K L M N O P Q R S T U V W X Y Z

Five Finger Death Punch - Remember Everything tab

Hey Guys! My second tab! I haven't seen a perfectly accurate tab on this song so I
figured I would post myself! Some of the tabs have the right notes but in concert Jason Hook
plays it on different strings, sounds the same but this is easier! DROP A errybody.


B)-----------------------------------|--------------------------------------|
F#)----------------------------------|--------------------------------------|
D)-------6----------------6----------|--------------------------------------|
A)-----7---9-6----------7---9-6-7-4--|-----4-7-6-----4-------4-7-6----------|
E)---9-----------9----9--------------|---4-------7---------4-------7---7----|
A)-0-----------0----0----------------|-4-----------4-----4-----------7------|

B)-----------------------------------|-----------------0--------------------|
F#)----------------------------------|-----------------0--------------------|
D)-------6----------------6----------|-----------------4--------------------|
A)-----7---9-6----------7---9-6-7-4--|-----4-7-6-----4-4--------------------|
E)---9-----------9----9--------------|---4-------7-----0--------------------|
A)-0-----------0----0----------------|-4-----------4-----0------------------|

And then it repeats for the first and second verse until the pre chorus (: if i figure
out the rest ill post it. Thanks! Rate and comment!
Tap to rate this tab
# A B C D E F G H I J K L M N O P Q R S T U V W X Y Z