Song name
# A B C D E F G H I J K L M N O P Q R S T U V W X Y Z

Five Finger Death Punch - Remember Everything tab

Hey guys, this is  Remember Everything. This is one of my favorite songs. Ill put 
the rest up as i figure it out. Remember im only 16 so im still new at this.
Contributor: 49erhometown
email: spurs49ersgiants4life@yahoo.com
Tuning low to high A-E-A-D-F#-B
Its not 100% but its close
                                                      Don't play this
Intro:                                                 on second time
|--------------------------------------------------|-----------------|
|o-------------------------------------------------|----------------o|
|--------6-4-------------6-4-----------------------|-----------------|
|------7-----6---------7-----6-7-4-----4-7-6-----4-|----4-7-6--------|
|o---9-----------9---9---------------4-------7-----|--4-------7---7-o|
|--0-----------0---0---------------4-----------4---|4-----------7----|

                        on second time play this: |-----------------|
                                                  |-0---------------|
                                                  |-4---------------|
                                                  |-4---------------|
                                                  |-----------------|
                                                  |-----------------|

Verse:                                             Don't play this part
                                                    on the second time
|--------------------------------------------------|----------------|
|o-------------------------------------------------|---------------o|
|--------6-4-------------6-4-----------------------|----------------|
|------7-----6---------7-----6-7-4-----4-7-6-----4-|---4-7-6--------|
|o---9-----------9---9---------------4-------7-----|-4-------7---7-o|
|--0-----------0---0---------------4-----------4---|4-----------7---|

on second time play this:
|-----------------------------------------------------------------------|
|-------2-0-----------3---2----------------------------------5-------9--|
|-----2-----1--2--------------4--------------------------------6------9-|
|---2---------------4---4---4--------7--6---4----4--2--4---6--------9---|
|-0----------0----2----------------4--4---4-------5-------4--------7----|
|--------------------------------4-------------0------------------------|


Chorus:

|--------------------------------------------------------|-------------|
|o-------------------------------------------------------|------------o|
|--2--------2--2--4--------4--4-----------------7------6-|-------------|
|--2--------2--2--4--------4--4--4--------4--4--7------6-|--x-x-x-x----|
|o-0--------0--0--2--------2--2--4--------4--4--5------4-|--x-x-x-x---o|
|--------------------------------4--------4--4-----------|--x-x-x-x----|
                                                       On second time 
                                                       hold this chord:
                                                         |---------------|
                               dont play this            |---------------|
                               on second chorus          |---------------|
                                                         |-x-x-x-x-4~~~~-|
                                                         |-x-x-x-x-4~~~~-|
                                                         |-x-x-x-x-4~~~~-|


Repeat Verse (for clean guitar) 
Distorted guitar is here: (just listen, you will hear when to play)

|------------|                  |-----|
|------------|                  |-----|Then go back to playing
|------------|                  |-6~~-|the muted part until:
|----------4-|(Just play this   |-6~~-|
|----------4-|muted a lot until |-4~~-|Play this again too but quickly 
|-\\\12----4-|you play this):   |-----|transition to next part
           *

Preverse: You will hear when this happens, i believe it is the same as when the 
change happens in the clean part

|-------------------------|
|-------------------------| Strum as you like for the chords
|-4------------4------6---|
|-4-----4------4------6---|
|-2-----4------2------4---|
|-------4-----------------|

Repeat Chorus

Bridge:

|-------------------------------------------------------| Strum as 
|-------------------------------------------------------| you like
|-2------------4------7---6----2-----------4----7----6--|
|-2-----4------4------7---6----2-----4-----4----7----6--|
|-0-----4------2------5---4----0-----4-----2----5----4--|
|-------4----------------------------4------------------|

Solo:
Havent figured it out yet, will update after i figure it out but i am busy with 
high school still so it is in the works. 

Repeat chorus a few times and end on this chord

|-----|
|-----|
|-2---|
|-2---|
|-0---|
|-----|

Thanks hope you enjoy, please vote!!
Tap to rate this tab
 
# A B C D E F G H I J K L M N O P Q R S T U V W X Y Z