Song name
# A B C D E F G H I J K L M N O P Q R S T U V W X Y Z

Five Finger Death Punch - Mine End This Way tab

Medeivalman98

Standard tuning
Bass note for chord changes is in B

Chords
    Bm   Bsus2sus4     B7sus2    B5    G    A
E|---2-------0----------------------------------------------------|
B|---3-------2-----------2--------2----3----2---------------------|
G|---4-------4-----------2--------4----4----2---------------------|
D|---4-------4-----------4--------4----5----2---------------------|
A|---2-------2-----------2--------2----5----0---------------------|
E|-------------------------------------3--------------------------|
     Bm                Bsus2sus4         Bm
E|-----------2-----------------0----------------------------------|
B|-------3-------3---------2-------2-------------3----------------|
G|---------4---4---4---------4---4---4-------4-------4------------|
D|-----4-----------------4-----------------4---4---4---4----------|
A|---2-----------------2-----------------2------------------------|
E|----------------------------------------------------------------|
     B7sus             G                 A
E|----------------------------------------------------------------|
B|-----------2-----------------3-----------------2----------------|
G|-------2-------2---------4-------4---------2--------2-----------|
D|-----4---4---4---4---------5---5---5-----2---2---2----2---------|
A|---2-------------------5---------------0------------------------|
E|---------------------3------------------------------------------|
     B5
E|----------------------------------------------------------------|
B|-------2-2----2-----0-------------------------------------------|
G|----------------4---4-------------------------------------------|
D|-----4------------4---------------------------------------------|
A|---2------------------------------------------------------------|
E|----------------------------------------------------------------|

Tap to rate this tab
# A B C D E F G H I J K L M N O P Q R S T U V W X Y Z