Song name
# A B C D E F G H I J K L M N O P Q R S T U V W X Y Z

Five Finger Death Punch - The Agony Of Regret Cold tab

The Agony of Regret
Five Finger Death Punch

Tuning: Standard B

This a beautiful and strong piece of guitar. So make sure your guitar is tuned in 
standerd B (B E A D F# B). Listen to the song for the rythm.

For the most beautiful sound I suggest to pick everything but the hammer-on part. You 
can play that part like bass players.

NOTE: When tuning your guitar this low it will easily get out of tune. If you play for a 
long time it will stay in tune. So the first 10 minutes you'll need to re-tune pretty much.


B|-----------------------------------|-----------------------------------|
F#---------------0-------------------|---------------0-------------------|
D|-----------2----------2-------2----|-----------2----------2------2-----|
A|-------5------------------3--------|-------5------------------3--------|
E|-----------------------------------|-----------------------------------|
B|---0-------------------------------|---0-------------------------------|

B|---------------------------------|----------------0--------------------------------------|
F#---------------0-----------------|------------1-------1----1-----------------------------|
D|-----------2----------2----------|--------4--------------4-------------------------------|
A|-------5------------------3------|-------------------------------------------------------|
E|---------------------------------|---0------------------------------------5--------------|
B|---3-----------------------------|---------------------------------0h3h5-----5--3--------|

Play twice

B|-------------------------------------|----------------------------------|
F#-----------0----------------0--------|----------0-------------0---------|
D|-------------------------------------|----------------------------------|
A|-------5------5---------5-------5----|------7-------7------7------7-----|
E|----3--------------3-----------------|---5-------------5-------------5--|
B|-------------------------------------|----------------------------------|

B|-------------------------------------|----------------------------------|
F#-----------0----------------0--------|----------0-----------------------|
D|-------------------------------------|----------------------------------|
A|-------5------5---------5-------5----|------7-------7------9------9-----|
E|----3--------------3-----------------|---5-------------/7------7--------|
B|-------------------------------------|----------------------------------|

B|-------------------------------------|----------------------------------|
F#-----------0----------------0--------|----------0-------------0---------|
D|-------------------------------------|----------------------------------|
A|-------5------5---------5-------5----|------7-------7------7------7-----|
E|----3--------------3-----------------|---5-------------5-------------5--|
B|-------------------------------------|----------------------------------|

B|------------------------------------------|
F#------------------------------------------|
D|------------------------------------------|
A|------------------------------------------|
E|-----7--7-----7--7------7-7------7--7-----|
B|--5--------5---------5--------5-----------|

Enjoy!
Tap to rate this tab
# A B C D E F G H I J K L M N O P Q R S T U V W X Y Z