Song name
# A B C D E F G H I J K L M N O P Q R S T U V W X Y Z

Five Finger Death Punch - The Bleedeing tab


D|----------------------------------------------------------|
A|----10----11---10---8----8/10-----------------------------|
F|--------------------------------x2------------------------|
C|-12----12---12---12---12----------------------------------|
G|----------------------------------------------------------|
C|----------------------------------------------------------|

D|-----------------------------------------------------|
A|----6----6---6---6---6/---8----8----8-----8----------|
F|-----------------------------------------------------|
C|-8----8----8---8---8/--10---10---10----10------------|
G|-----------------------------------------------------|
C|-----------------------------------------------------|

D|--------------------------------------------------------|
A|--------------------------------------------------------|
F|--------------------------------------------------------|
C|--------------------------------------------------------|
G|-00--00--00--00--00--33--33--33--33--55--55--55--55-----|
C|-00--00--00--00--00--33--33--33--33--55--55--55--55-----|


D|-15b~--15--13--12----------------------------------|
A|-------------------13--12--------------------------|
F|----------------------------14~~--12~~-------------|
C|---------------------------------------------------|
G|---------------------------------------------------|
C|---------------------------------------------------|


D|------------------13--15b~|---15b--13--12--20-------------|
A|----------13--15----------|-------------------------------|
F|-12--14-------------------|-------------------------------|
C|--------------------------|-------------------------------|
G|--------------------------|-------------------------------|
C|--------------------------|-------------------------------|


D|--------------12-14---17----15-13-12------------------|
A|-------13-15---------------------------15--13--12-----|
F|-12-14------------------------------------------------|
C|------------------------------------------------------|
G|------------------------------------------------------|
C|------------------------------------------------------|

D|----------------------------------------------------|
A|----------------------------------------------------|
F|----------------------------------------------------|
C|----------------------------------------------------|
G|-00-0--00--00-0--00--00-0--00---033335555-----------|
C|-00-0--00--00-0--00--00-0--00---033335555-----------|
         ..        ..        ..

And thats it.....
Tap to rate this tab
# A B C D E F G H I J K L M N O P Q R S T U V W X Y Z