Song name
# A B C D E F G H I J K L M N O P Q R S T U V W X Y Z

Five For Fighting - Chances tab

-------------------------------------------------------------------------------
			     SONG NAME - Band Name
-------------------------------------------------------------------------------
Tabbed by:bkelly2028
Email:bkelly2028@gmail.com

Tuning: Standard CAPO 3

It's good enough for me. If you find any errors THAT YOU CAN FIX, please hit me an email. 

e|-------------------------------------------------------------------------|
B|---------3-------------------3-------------------------------------------|
G|------------------2--------------------2-----2^0-------------------------|
D|------0--------0----------0---------0------------------------------------|
A|-------------------------------------------------------------------------|
E|---3--------3---------3----------3--------3------------------------------|

e|-------------------------------------------------------------------------|
B|----------3---------------3----------------------------------------------|
G|------------------2---------------2-------2^0----------------------------|
D|-------0--------0-------0-------0----------------------------------------|
A|-------------------------------------------------------------------------|
E|---2----------2-------2-------2--------2---------------------------------|

e|-------------------------------------------------------------------------|
B|------3---------------3--------------------------------------------------|
G|--------------2---------------2--------2^0-------------------------------|
D|----0-------0-------0-------0--------------------------------------------|
A|--3-------3-------3-------3--------3-------------------------------------|
E|-------------------------------------------------------------------------|

e|-------------------------------------------------------------------------|
B|------3--------------3---------------------------------------------------|
G|-------------2-----------------2---hold-then-vocals/chords-start---------|
D|----0------0-------0--------0--------------------------------------------|
A|-------------------------------------------------------------------------|
E|--3------3-------3-------3-----------------------------------------------|

Tap to rate this tab
 
# A B C D E F G H I J K L M N O P Q R S T U V W X Y Z