Guitaretab - guitar tabs
Song name
# A B C D E F G H I J K L M N O P Q R S T U V W X Y Z

Five For Fighting - 100 Years tab

-------------------------------------------------------------------------------
			     100 Years Ė Five for Fighting
-------------------------------------------------------------------------------
Tabbed by: musicfreak3
Email:smachin1@tampabay.rr.com
Tuning: standard
	Hey, I donít think anybodyís tabbed this intro yet since itís known so well on piano, 
here it isÖÖ

Intro

e|------3--3------------------------3---3----------------------------------|
B|------------0--1--1--0--1ó3--------------0---1---1--0--1--3--1--0--------|
G|-------------------------------------------------------------------------|
D|---------------------------------------------0---------------------------|
A|---------------3-------------0-------------------------------------------|
E|---3--------------------------------------------------------------3------|

e|---3--3------------------0-----------------------------------------------|
B|---------3--0--0--1--3-------0--0----------------------------------------|
G|------------------------------------2---0------0-------------------------|
D|------------2-----------------------0-------4----------------------------|
A|-------------------------0-----------------------------------------------|
E|-------------------------------------------------------------------------|

| /  slide up
| \  slide down
| h  hammer-on
| p  pull-off
| ~  vibrato
| +  harmonic
| x  Mute note
===============================================================================
-Verse: (with riff)
Iím 15 for a moment, caught in between 10 and 20 and Iím just dreaminí, counting the
to where you are

-Verse: (Strumming)

G    C       Am7                 D7                   G        Em
Iím 22 for a moment, she feels better than ever and weíre on fire, chasing
     C             D    G
our way back from Mars
[ Tab from: http://www.guitaretab.com/f/five-for-fighting/47951.html ]
-Chorus 1: softly
G     D          C         G          D           C     G      Em
15 Thereís still time for you, time to buy and time to loose, 15, thereís
           C    Em         C
never  a wish better than this
D (bass only)                                      G
when youíve only got 100 years to live

G, C, Am7, D7, G

-Verse: (same chords)
Iím 33 for a moment, still the man, but you see Iím a they kid on the way and a family 
my mind

-Verse:
Iím 45 for a moment, the sea is high and Iím heading into a crisis, chasing the years of 
life

-Chorus 2:
G      D          C      G              D     C         Em            C
15 Thereís still time for you time to buy and time to lose yourself within
D
morning star
G    D        C    G      Em                 C       Em         C
15 Iím alright with you, 15, thereís never a wish better than this, when
         D                     C
youíve only got 100 years to live

Bridge:
C                         Dsus          Em                      Fmaj7
Half the time goes by, suddenly youíre wise, another blink of an eye, 67 is
 C                       Dsus              G
gone the sun is getting high  Weíre moviní on

(Intro)
with intro-
 Iím 99 for a moment, dying for just another moment and Iím just dreaminí counting the
to where you are

-Chorus 3-

G      D        C          G     D   C         G     D      C
15 Thereís still time for you, 22 I feel her too, 33 youíre on your way,
G       D      C
every dayís a new day

(Ooh) 3 times-  G, D, C, G, D, C, G, D, C, Em, C

-Chorus-
G     D      C     G     Em                   C      Em        C
15 Iím alright with you, 15, thereís never a wish better than this, when
D (bass only)                 (begin outro)
youvíe only got 100 years to live

-Outro- softly
e|------3--3-------------------------3--3------------------------------------|
B|------------0--1--1--0--1--3-------------0--1--1--0--1--3------------------|
G|---------------------------------------------------------------------------|
D|--------------------------------------------0-(let ring)-------------------|
A|---------------3--------------0--------------------------------------------|
e!----3----------------------------------------------------------------------|

Well, thatís it! The song is tabbed in order- no skipping around! This is my first time
so I hope
you like it!
musicfreak3
Related for 100 Years tab