Song name
# A B C D E F G H I J K L M N O P Q R S T U V W X Y Z

Five Horse Johnson - Sweetwater Gasoline tab

#############################################################################
### PLEASE NOTE THIS SONG IS CALLED "Sweetwater" NOT "Sweetwater Gasoline"###
### The tab requests song title was named incorrectly, I cannot change it ###
### It is the correct song off "The Last Men on Earth" Album ###
### Can this please be corrected, thank you. ###
#############################################################################

Tabbed by sixwheeledbeast
Five Horse Johnson - Sweetwater
Tuning: Standard E (EADBGE)

PM any questions/corrections thanks, rate please. 

#Intro (0:00)
e|---------------------------|
B|-----------------------7-5-|:
G|---5-7-5-----7-5-0h5-5-7-5-|
D|-7-5-7-5-7~--7-5-0h5-5-----|
A|-7-------------------------|:
E|-5-------------------------|x2

#Verse Riff Variation(0:10)
e|-----------------------------|
B|-----------------------------|:
G|---------------------5h7p5---|
D|-7-7--5-5--7~-7-7--5-------7~|
A|-7-7--5-5-----7-7--5---------|:
E|-----------------------------|x2

#Verse Riff (0:19)
e|-----------------------------|
B|-----------------------------|:
G|---------------------5/7-5---|
D|-7-7--5-5-5/7--7-7--5------7~|
A|-7-7--5-5-5/7--7-7--5--------|:
E|-5-5--3-3-3/5--5-5--3--------|x4

#Verse Riff Variation (0:38)

#Verse Riff (0:48)

#Bridge "The Fuel" (1:08)
e|----------------------------------|
B|----------------------------------|:
G|-------5-5------------7-5---7-5---|
D|-7-5-7-----7~-7-5h7-7-----7-----7-|
A|----------------------------------|:
E|----------------------------------|x2

#Chorus (1:17)
e|---------------|
B|---------------|:
G|-------------5-|
D|-5-5-5/7-5-7---|
A|-5-5-5/7-------|:
E|-3-3-3/5-------|x4

e|-----------|  |--------|
B|-----------|::|--------|
G|-7-5-2-0-2-|  |-7-5-2--|
D|-7-5-2-0-2-|  |-7-5-2--|
A|-----------|::|--------|
E|-----------|x3|--------|
                (On Last only)

#Verse Riff (1:38)

#Bridge "The Fuel" (1:58)

#Chorus (2:07)

#Solo (2:28)
A Minor Blues Scale
Still working on this. Will keep updated.

#Chorus (2:57) 

#Ending (3:06)
e|-----------|  |--------|
B|-----------|::|--------|
G|-7-5-2-0-2-|  |-7-5-2--|
D|-7-5-2-0-2-|  |-7-5-2--|
A|-----------|::|--------|
E|-----------|x3|--------|
                (On Last only)
Tap to rate this tab
 
# A B C D E F G H I J K L M N O P Q R S T U V W X Y Z