Song name
# A B C D E F G H I J K L M N O P Q R S T U V W X Y Z

Five Iron Frenzy - My Evil Plan To Save The World tab

-------------------------------------------------------------------------------
	 My Evil Plan To Save The World - Five Iron Frenzy
-------------------------------------------------------------------------------
Tabbed by: deanvendetta
Email:  deanvendetta@live.com

Tuning: Standard

e|----------------------------------------------------|------------------------|
B|----------------------------------------------------|------------------------|
G|----------------------------------------------------|------------------------|
D|-------55--------------------77---------------------|-7-7\2--2---2----2------|
A|---33-----33-xxxxxxx-----55------55-xxxxxxx---------|----------3----0--------|
E|----------------------------------------------------|--------------------4---|

e|----------------------------------------------------|------------------------|
B|----------------------------------------------------|------------------------|
G|----------------------------------------------------|------------------------|
D|-------55--------------------77---------------------|-7-7\2--2---2----2/7----|
A|---33-----33-xxxxxxx-----55------55-xxxxxxx---------|----------3----5--------|
E|----------------------------------------------------|------------------------|

(I'm not sure what goes here. If anybody has any idea please post it.)


I have an evil plan
to save the world for every man,
and I think it's better than the way it's being run.
Oh, the ground works laid,
no don't be afraid,
I'm sure that I can fix it,
when I figure out the physics.

e|----------------------------------------------------|-
B|----------------------------------------------------|
G|----------------------------------------------------|
D|----------------------------------------------------|
A|-----------------------------------0----------------|
E|--8-----------10------------------------------------|
     My   evil   plan  to  save  the world,
e|-------------------------------------------|
B|-------------------------------------------|
G|-------------------------------------------|
D|-------------------------------------------|
A|-------------------7---------------8-------|
E|-------------------------------------------|

           just you wait 'till it's unfurled

e|--------------------|------------------------------------|
B|--------------------|------------------------------------|
G|--------------------|------------------------------------|
D|--------------------|------------------------------------|
A|--------------------|----------7--7h8--------------------|
E|--------------------|--------------------10--------------|

  it'll go down in                his-tor-y.

e|---------------------------------------------------------|
B|---------------------------------------------------------|
G|---------------------------------------------------------|
D|---------------------------------------------------------|
A|---------------------0-----------7--------------8--------|
E|--8-------10---------------------------------------------|


    It's prophetic,       no it's not pathetic.           

e|-----------------------|-----------------|
B|-----------------------|-----------------|
G|-----------------------|-----------------|
D|-----------------------|-----------------|
A|-----------------------|---7--7h8--------|
E|-----------------------|-----------10----|

I can't believe I made it    up  my-self.

I have an evil plan, to save the world you understand,
the exemplary feat,
you'd think I'd have to cheat.
I'd make Voltaire proud, deep and furrow browed.
Uncanny and so clever,
it's 'Our Newest Plan Ever!'

Got tired of whining,
a grander scheme with silver lining,
for every boy and girl.
We can't be responsible,
for all that's wrong with this world.
Starving children in pain,
you can't believe in that God.
The world's not spinning your way,
does every dog still get his day?

| /  slide up
| \  slide down
| h  hammer-on
| p  pull-off
| ~  vibrato
| +  harmonic
| x  Mute note
===============================================================================
Tap to rate this tab
 
# A B C D E F G H I J K L M N O P Q R S T U V W X Y Z