Song name
# A B C D E F G H I J K L M N O P Q R S T U V W X Y Z

Five Iron Frenzy - You Cant Handle This tab

-------------------------------------------------------------------------------
			     You Can't handle This intro - Five Iron Frenzy
-------------------------------------------------------------------------------
Tabbed by: Mii

Tuning: Standard

e|-5----8--5---------3------------------5------8--5---------3----------------|
B|---6--------8---6----3---------6--8-----6----------8--6----3---------------|
G|----------------------------5----------------------------------------------|
D|---------------------------------------------------------------------------|
A|---------------------------------------------------------------------------|
E|---------------------------------------------------------------------------|

repeat this a few times and end on
B|---6--8--6--------------------------------------------------------

This sounds correct. Thanks for checking this out.
Tap to rate this tab
 
# A B C D E F G H I J K L M N O P Q R S T U V W X Y Z