Song name
# A B C D E F G H I J K L M N O P Q R S T U V W X Y Z

Five Iron Frenzy - It Was A Dark And Stormy Night Hope Still Flies tab

INTRO

Electric 1

E|----------------------------------|
B|----------------------------------|
G|-7/8\7\3-----5--12/14-------12-11-|
D|-x-x-x-x-x2--x--x--x--x2----x--x--|
A|-5/6\5\1-----3--10/12-------10-9--|
E|----------------------------------|

Electric 2

E|----------------|
B|----------------|
G|----10----12-11-|
D|-12-10----12-11-|
A|-12-8-----10-9--|
E|-10-------------|

VERSE (part 1)

Electric 2

E|-------------------------------------------------------|
B|-------------------------------------------------------|
G|-------------------------------------------------------|
D|-----------------------------------------4-4-4-4-------|
A|----------5----------5-3x12-----5-5--3---------------5-|
E|-3x12-3-6---6x12-3-6--------3-6--------6---------3-6---|

VERSE (part 2)

Electric 1
(palm mute)
E|----------|
B|----------|
G|----------|
D|----------|
A|----------|
E|-15-13-12-|

Electric 2

E|----------------------------------------|
B|----------------------------------------|
G|-------------------------------------10-|
D|-------------------------------------10-|
A|----------5----------5-3x12-----5-5--8--|
E|-3x12-3-6---6x12-3-6--------3-6---------|

CHORUS

Electric 1
(kinda made this up :P)
E|------------|
B|------------|
G|-3-5-7-10-9-|
D|-x-x-x-x--x-|
A|-1-3-5-8--7-|
E|------------|

Electric 2

E|----------|
B|----------|
G|-8--------|
D|-8-5-8-10-|
A|-6-5-8-10-|
E|---3-6-8--|

POST 

Electric 2

E|--------|
B|--------|
G|-5-8-10-|
D|-5-8-10-|
A|-3-6-8--|
E|--------|

VERSE (part 1)

Nothing

VERSE (part 2)

Electric 1

E|-------------------------------------|
B|-------------------------------------|
G|-12-12-------------------------------|
D|-------12-12----------10-------------|
A|-------------10-10-13----13-10-13-10-|
E|-------------------------------------|

Electric 2

E|----------------------------------------|
B|----------------------------------------|
G|-------------------------------------10-|
D|-------------------------------------10-|
A|----------5----------5-3x12-----5-5--8--|
E|-3x12-3-6---6x12-3-6--------3-6---------|

CHORUS

INTRO

BRIDGE (part 1)

Electric 1+2

E|---------------------|
B|---------------------|
G|-6-8-7---------------|
D|-6-8-7-x2-8-10-11-13-|
A|-4-6-5----8-10-11-13-|
E|----------6-8--7--11-|

BRIDGE (part 2)

Electric 1

E|-------------|
B|-------------|
G|-17-14-12-14-|
D|-x--x--x--x--|
A|-15-12-10-12-|
E|-------------|

Electric 2

E|---|
B|---|
G|---|
D|-3-|
A|-3-|
E|-1-|

CHORUS (Piano)

CHORUS VARIATION

Electric 1+2

E|----------------------|
B|----------------------|
G|--------8-5-8-5-8-5---|
D|-13-8-5-8-5-8-5-8-5-5-|
A|-13-8-5-6-3-6-3-6-3-5-|
E|-11-6-3-------------3-|
Tap to rate this tab
 
# A B C D E F G H I J K L M N O P Q R S T U V W X Y Z