Guitaretab - guitar tabs
Song name
# A B C D E F G H I J K L M N O P Q R S T U V W X Y Z

Five Iron Frenzy - Riot Gear tab

The other version of this song was so off that i just had to do it myself so here it is 
correct....

[ Tab from: http://www.guitaretab.com/f/five-iron-frenzy/38694.html ]
-5----7--4------------5----7/9--7------------|
---7-------6h7--6-------7---------9--6-------|
---------------------------------------------|
---------------------------------------------|
---------------------------------------------|
---------------------------------------------|

-5----7--4------------5---4-------2----------|
---7-------6h7--6-------7---5--3----2--------|
---------------------------------------------|
---------------------------------------------|
---------------------------------------------|
---------------------------------------------| Repeat


My name is Cam I rock at the guitar!!!!!!!
Related for Riot Gear tab
Advertisement will be closed in 10 seconds