Song name
# A B C D E F G H I J K L M N O P Q R S T U V W X Y Z

Five Iron Frenzy - Farewell To Arms tab

This is farewell to arms, the 8th song of five iron's newest and last album the end is near.
This is the best song on the album!

Tuning: EADGBE

Intro:
Guitar 1:
E-------------------------------------------------------------------|
B-----2-0-2------2-0-2------2-0-2------2-0-2------2-0-2------2-0-2--|
G----2-----2----2-----2----2-----2----2-----2----2-----2----2-----2-|
D-------------------------4----------4----------3----------3--------|
A--0-----------0----------------------------------------------------|
E-------------------------------------------------------------------|

E-------------------------|
B----2-0-2------2-0-2-----|
G---2-----2----2-----2----|
D--2----------2-----------|
A-------------------------|
E-------------------------| repeat 2x from top

Guitar 2:
E--------------------|
B--------------------|
G--------------------|
D--7----4----3----2--|
A--7----4----3----2--|
E--5----2----1----0--| play on 2nd rep. of above

Chorus:
Guitar 1 + 2:
E----------------------------------------------------------|
B----------------------------------------------------------|
G----------------------------------------------------------|
D--777777777777--444444444444--333333333333--222222222222--|
A--777777777777--444444444444--333333333333--222222222222--|
E--555555555555--222222222222--111111111111--000000000000--| repeat 2x

Verse:
Guitar 1 + 2:
E--------------------------------------------------------------|
B--------------------------------------------------------------|
G--------------------------------------------------------------|
D--7-7-77-7-7-77--4-4-44-4-4-44--3-3-33-3-3-33--2-2-22-2-2-22--|
A--7-7-77-7-7-77--4-4-44-4-4-44--3-3-33-3-3-33--2-2-22-2-2-22--|
E--5-5-55-5-5-55--2-2-22-2-2-22--1-1-11-1-1-11--0-0-00-0-0-00--| repeat 2x
theres some palm muting here, listen to the song to figure it out

:
Guitar 1 + 2:
E---------------------------------------------------------------|
B---------------------------------------------------------------|
G----------666--999--------------------------777--999-----------|
D--444444--666--999--777777--666666--444444--777--999--2222222--|
A--444444--444--777--777777--666666--444444--555--777--2222222--|
E--222222------------555555--444444--000000------------0000000--|
drum and trumpet beat

E---------------------------------------------------------------------------|
B---------------------------------------------------------------------------|
G----------666--999--------------------------777--999------------999999999--|
D--444444--666--999--777777--666666--444444--777--999222222222222999999999--|
A--444444--444--777--777777--666666--444444--777--777222222222222777777777--|
E--222222------------555555--444444--000000----------000000000000-----------|

Verse:

Chorus:

:
Guitar 1 + 2:
E---------------------------------------------------------------|
B---------------------------------------------------------------|
G----------666--999--------------------------777--999-----------|
D--444444--666--999--777777--666666--444444--777--999--2222222--|
A--444444--444--777--777777--666666--444444--555--777--2222222--|
E--222222------------555555--444444--000000------------0000000--|
drum and trumpet beat

E--------------------------------------------------------------------|
B--------------------------------------------------------------------|
G----------666--999--------------------------777--99999999999999-----|
D--444444--666--999--777777--666666--444444--777--99999999999999--7--|
A--444444--444--777--777777--666666--444444--555--77777777777777--7--|
E--222222------------555555--444444--000000-----------------------5--|
as guitar 1 plays the last 775 guitar 2 begins the bridge

Bridge:
Guitar 2:
E-------------------------------------------------------------|
B-------------------------------------------------------------|
G-------------------------------------------------------------|
D-------------------------------------------------------------|
A-------------------------------------------------------------|
E--555555555555555555555555--8888888888888888--111--888--111--| repeat 4x

Guitar 1:
E---0-5---0-5---0-5---0-5---0-5---0-5---0-5---0-5--|
B--2-----2-----2-----2-----2-----2-----2-----2-----|
G--------------------------------------------------|
D--------------------------------------------------|
A--------------------------------------------------|
E--------------------------------------------------|

E---0-3---0-3---0-3---0-3---0-3---0-3---0-3---0-3--|
B--1-----1-----1-----1-----1-----1-----1-----1-----|
G--------------------------------------------------|
D--------------------------------------------------|
A--------------------------------------------------|
E--------------------------------------------------| repeat 3x all of guitar 1
come in after guitar 2's 1st rep.

After Bridge:
Guitar 1 + 2:
E--------------------------------------------------------|
B--------------------------------------------------------|
G-------------------------555--101010101010101010101010--|
D--777777777777777777777--555--101010101010101010101010--|
A--777777777777777777777--333---8-8-8-8-8-8-8-8-8-8-8-8--|
E--555555555555555555555---------------------------------|

E----------------------------|
B----------------------------|
G--121212121212121212121212--|
D--101010101010101010101010--|
A--101010101010101010101010--|
E----------------------------| repeat 2x from top of after bridge

Chorus:

Chorus:

Chorus:

Thats it, I'm sure its right, tell me if its not at projectwyman@hotmail.com
Tap to rate this tab
 
# A B C D E F G H I J K L M N O P Q R S T U V W X Y Z