Song name
# A B C D E F G H I J K L M N O P Q R S T U V W X Y Z

Five Iron Frenzy - Juggernaut tab


----------------------------------------------------------------------------
			     Juggernaut - Five Iron frenzy                 
-----------------------------------------------------------------------------
Tabbed by:pp nose
Email:ryeguy@cfl.rr.com
To all you FIF fans out thare you ROCK :)
Tuning:normal

e|---------------------------------------------------------------------------|
B|---------------------------------------------------------------------------|
G|--------------------------------x-x--11--11--11--x-x--9--9---8--8----------|
D|--9--9--9----9999----9---9---9--x-x--x---x---x---x-x--x--x---x--x----------|
A|--x--x--x----xxxx----x---x---x--x-x--9---9---9---x-x--7--7---6--6----------|
E|--7--7--7----7777----7---7---7---------------------------------------------|

Tap to rate this tab
# A B C D E F G H I J K L M N O P Q R S T U V W X Y Z