Song name
# A B C D E F G H I J K L M N O P Q R S T U V W X Y Z

Five Iron Frenzy - Solidarity tab

Solidarity
Five Iron Frenzy
CD: All the Hype Money Can Buy
Tab by Austen

Intro:
e-----------------------------------------------------------|
B-----------------------------------------------------------|
G-----------------------------------------------------------|
D------10-------9--------12-------9-------------------------|
A---7------9-10---10--9------9-10---10----------------------|
E-----------------------------------------------------------|
    C        G        D        G


Then with horns: C G D G  C G D G
C   xxx553
G   xx5433
D   xxx232


G
To the brothers and the sisters
Em
To all of the resistors
D#
To the workers broke and cryin'
F
On the road that leads to Zion
G
The mountain, the mountain
Em
We will all climb
D#
All of God's children
F
In God's own time

Verse Chords:
G    xx5433
Em   xxx453
D#   xxx343
F    xxx565

Chorus:
Power chords for the first part of chorus
e-----------------------------------------------------------|
B-----------------------------------------------------------|
G---9-9-12---5--5-4-4--/8--9--------------------------------|
D---9-9-12---5--5-4-4--/8--9--------------------------------|
A---7-7-10---3--3-2-2--/6--7--------------------------------|
E-----------------------------------------------------------|
    E E G    C    B     D# E

E  E      G
Unity the verb (HEY)
C   B   D#
Solidarity
E       E          G
You the truth have heard (HEY)
C   B   D#
Solidarity
E       E      G
Rise up to the call (HEY)
D   C#      B C
Solidarity united

D
We can never
G        C         D           C       Em
fall Let one voice ring throughout the world
Em           F
Let truth be sown
G   C      D       C
Let us lay our own lives down
Em        F
A greater love was never known


Verse:
While the light is growing dim
Make war to keep your faith in Him
Knowing what has made us free
Unity, not uniformity
One world, one voice
In trenches we stand tall
One truth that has found us
One shepherd for us all


Bridge: From the chorus: G C D C Em  F

Whew!
Tap to rate this tab
# A B C D E F G H I J K L M N O P Q R S T U V W X Y Z