Song name
# A B C D E F G H I J K L M N O P Q R S T U V W X Y Z

Five Quid Short - Borign Week tab

Artist : Five Quid Short
Song : Boring Week

standard tuning

use the pickup selection one up from the bridge for that wholesome ska sound

this is only the intro

|--------4h6-4-----------------|
|----7-----------7---4---------|
|------------------------6-----|      times 2
|------------------------------|
|------------------------------|
|------------------------------|


|-------4h6-4----7--9-------------|
|----7--------7--------7-77-44-7--|
|---------------------------------|then possibly d5th c5th
|---------------------------------|g5th power chords
|---------------------------------|
|---------------------------------|
Tap to rate this tab
# A B C D E F G H I J K L M N O P Q R S T U V W X Y Z