Guitaretab - guitar tabs
Song name
# A B C D E F G H I J K L M N O P Q R S T U V W X Y Z

Five Times August - Wherever tab

Capo on the 4th Fret
Listen to the song for the rhythm on the picking and the strumming

Verse and intro
-------------------------2-------2-----------3-------3----------5-----101010-|
-----3-------3-------------3-------3-----------3-------3----------3---101010-|
-------0-------0-------0-------0-------0---0-------0----------0--------------|
---0-------0-------0---------------------2-------2-------2--4-------4--------|
---------------------2-------2-------2---------------------------------------|
-3-------3-------3-----------------------------------------------------------|

2nd part of intro and bridge
---2-3-2---5-7-5---7-8-7----0-0-0-101010-|
---3-3-3---7-7-7---8-8-8---101010-101010-|
---0-0-0---0-0-0---0-0-0----0-0-0-0-0-0--|
-----------------------------------------|
-----------------------------------------|
-3-------7-------8-------10--------------|
[ Tab from: http://www.guitaretab.com/f/five-times-august/149538.html ]
"I Can see in side of you...."
x2
-3-2-3-2-3-2-3-3-|
-3-3-3-3-3-3-3-3-|
-0-0-0-0-0-0-0-0-|
-0-0-0-0-0-0-2-0-|
-0-0-2-2-3-3---3-|
-3-3-------------|

Chorusx2
"Wherever you want me whenever you need me i'll be waiting for the time to "
-3------------2---------------------3---------------3---------------3---|
-3------------3---------------------3---------------3---------------3---|
-0------------0---------------------0---------------0---------------0---|
-0------------0---------------------0---------------2---------------0---|
-0------------0---------------------3-------------------------------3---|
-3------------3---------------------------------------------------------|

"Cause you know...I want you to know"
x2
-3-3-3-3-|
-3-3-3-3-|
-0-2-0-0-|
-0-0-2-2-|
-0-0-2-3-|
-3-2-0---|

Ending play the bridge first and then this
------10-----10-----10----3-|
---10-----10-----10-------3-|
--------------------------0-|
--------------------------0-|
--------------------------0-|
-10-----10-----10-----10--3-|
Related for Wherever tab