Song name
# A B C D E F G H I J K L M N O P Q R S T U V W X Y Z

Five Times August - Most Uncommon Thing tab

Five Times August
Most Uncommon Thing
Capo 2	
Tuning:  EAEFCE

The tuning is kinda strange but makes the song a lot easier.  Beautiful and 
simple.  You can look up the lyrics. The timing is kinda slow and fairly constant 
thru-out the song as well.


Intro

E|---3--0----3--0----3--0------------|
C|--------0-------0-------0--0---0---|
F|----------------------------0---0--|
E|--3--3----5--5----3--3----3---3----|
A|-3--3--3-5--5--5-3--3--3-0---1-----|
E|-----------------------------------|

Verse

E|---0-----0-----0-------------|
C|------0-----0-----0--0---0---|
F|----------------------0---0--|
E|--3--3--5--5--3--3--3---3----|
A|-3--3--5--5--3--3--0---1-----|
E|-----------------------------|


Chorus

E|---0-------0-------|
C|------0-------0----|
F|--------0-------0--|
E|--3--3----5--5-----|
A|-3--3--3-5--5--5---|
E|-------------------|


Bridge

E|------------------------| 
C|---0---0---0---0---0----| 
F|----0---0---0---0---0---| 
E|--8---7---5---5---5-----| 
A|-8---8---8---8---8---8--| 
E|------------------------|


Interlude

E|-3--1-0----------3--1-0--------------|
C|--0-----2-0-2-4---0-----2------------|
F|---0---------------0--------0-0-0-0--|
E|----------------------------3-3-3-3--|
A|-3---3-3-3-3-3---3---3-3----3-3-3-3--|
E|-------------------------------------|
 		                          \-Optional-/

Play Order

Intro x2
Verse x4
Chorus x4
Bridge x2
Intro x2
Verse x4
Chorus x4
Bridge x2
Interlude x2
Intro x2
Chorus x4
Bridge x2
Intro x2
Tap to rate this tab
 
# A B C D E F G H I J K L M N O P Q R S T U V W X Y Z