Guitaretab - guitar tabs
Song name
# A B C D E F G H I J K L M N O P Q R S T U V W X Y Z

Five Times August - Better With You tab

Intro
X-----X-----X------X-----X-----X------X----0----------3-|
3-----3-----3------3-----3-----3------3----3/5/3------3-|
0h2---0h2---0------2h0---0h2---0h2----0----2/4/2/0----0-|
0-----0-----0h2----0-----0-----0------0h2--0----------2-|
X-----2-----3------X-----X-----2------3----X----------3-|
3-----X-----X------X-----3-----X------X----X----------X-|
[ Tab from: http://www.guitaretab.com/f/five-times-august/67029.html ]
Verse
X---------X----------X---------X---|
3---------3----------3---------3---|
0h2-------0h2--------0---------2h0-|
0---------0----------0h2-------0---|
X---------2----------3---------X---|
3---------X----------X---------X---|

Chorus
---x-----x-----x------x-------x-----x-----x-------|
---3-----3-----3------3-------3-----3-----3-------|
---0-----2-----0------2-------0-----2-----0-------|
---0-----0-----0------0-------0-----0-----0-------|
---2-----x-----3------x-------2-----x-----3-------|
---x-----x-----x------x-------x-----x-----x-------|

Bridge/Outro:
So use me dont let me..
3-------3-------3--------3-|
1-------1-------1--------3-|
0-------0-------0--------0-|
2-------0-------2--------2-|
0-------2-------3--------2-|
X-------X-------X--------0-|
Related for Better With You tab