Guitaretab - guitar tabs
Song name
# A B C D E F G H I J K L M N O P Q R S T U V W X Y Z

Five Times August - Wherever Acoustic tab

Five Times August - "Wherever"

Email: muaythai1991@hotmail.com

Tuning: Standard (Capo 4)

Before you even look at this, this tab is an easier version of the song that isn't
I put this together for slightly less experienced players. (although it could be considered
as hard I think Itís easier) I think I sounds good however. So yeah, don't expect a 
transcription!

Intro ( If you play this, I suggest you fingerpick)
e|---------------------------------------------------------------|
B|-----3-------3----------------3-------3------------------------|
G|-------0-------0------0---------0-------0-----0----------------|
D|---0-------0--------0---0---0-------0-------0---0--------------|
A|--------------------------2-------2-------2--------------------|
E|-3-------3--------3--------------------------------------------|

e|---------------------------------------------------------------|
B|-----3-------3---------------3-------3-------3-----------------|
G|-------0-------0-----0-----2---2---2---2---2---0---------------|
D|---2-------2-------2---2-0-------0-------0---------------------|
A|-3-------3-------3---------------------------------------------|
E|---------------------------------------------------------------|

(play loud and focus on the treble strings)
e|--3-------2-------3-------2------------------------------------|X2
B|--3-------3-------3-------3------------------------------------|
G|--0-------0-------0-------2------------------------------------|
D|--0-------0-------2-------0------------------------------------|
A|--X-------2-------3-------0------------------------------------|
E|--3-------X-------X-------X------------------------------------|

Verse 1 (play quietly and focus on the bass strings)
e|--3-------2-------3-------2------------------------------------|X2
B|--3-------3-------3-------3------------------------------------|
G|--0-------0-------0-------2------------------------------------|
D|--0-------0-------2-------0------------------------------------|
A|--X-------2-------3-------0------------------------------------|
E|--3-------X-------X-------X------------------------------------|

Itís strange to me, Iíll give you everything
But you donít know what it means
And I hate to be the one to disagree
But you donít know what your missing cause I...

Bridge
e|--3-------3-------3-------3--3---------------------------------|
B|--3-------3-------3-------3--3---------------------------------|
G|--0-------2-------0-------2--0---------------------------------|
D|--2-------0-------0-------2--2---------------------------------|
A|--2-------0-------X-------0--3---------------------------------|
E|--0-------2-------3-------X--X---------------------------------|

I see inside you
I want to be the life of you
Cause you gave that much to me

Chorus
e|--3-------2-------3-------2------------------------------------|X2
B|--3-------3-------3-------3------------------------------------|
G|--0-------0-------0-------2------------------------------------|
D|--0-------0-------2-------0------------------------------------|
A|--X-------2-------3-------0------------------------------------|
E|--3-------X-------X-------X------------------------------------|

Wherever you want me,
Whenever you need me
Iíll be waiting for my time to go
Whatever youíre asking
Thereís no need to ask it,
Iíll be on my way to get it done

e|--3-------2-------3-------2------------------------------------|
B|--3-------3-------3-------3------------------------------------|
G|--0-------0-------0-------2------------------------------------|
D|--0-------0-------2-------0------------------------------------|
A|--X-------2-------3-------0------------------------------------|
E|--3-------X-------X-------X------------------------------------|

Verse 2 (same as Verse 1 but with a little percussion)
e|--3-------2-------3-------2------------------------------------|X2
B|--3-------3-------3-------3------------------------------------|
G|--0-------0-------0-------2------------------------------------|
D|--0-------0-------2-------0------------------------------------|
A|--X-------2-------3-------0------------------------------------|
E|--3-------X-------X-------X------------------------------------|

So Iíve laid it on the line, do you need a little time?
I guess I could understand that
Itís a lot to take in you wouldnít know where to begin
But you wonít need to ever look back

Bridge
e|--3-------3-------3-------3--3---------------------------------|
B|--3-------3-------3-------3--3---------------------------------|
G|--0-------2-------0-------2--0---------------------------------|
D|--2-------0-------0-------2--2---------------------------------|
A|--2-------0-------X-------0--3---------------------------------|
E|--0-------2-------3-------X--X---------------------------------|

Cause I see inside you
I want to be the life of you
Cause you gave that much to me

Chorus
e|--3-------2-------3-------2------------------------------------|X2
B|--3-------3-------3-------3------------------------------------|
G|--0-------0-------0-------2------------------------------------|
D|--0-------0-------2-------0------------------------------------|
A|--X-------2-------3-------0------------------------------------|
E|--3-------X-------X-------X------------------------------------|
[ Tab from: http://www.guitaretab.com/f/five-times-august/97614.html ]
Wherever you want me,
Whenever you need me
Iíll be waiting for my time to go
Whatever youíre asking
Thereís no need to ask it,
Iíll be on my way to get it done

e|--3-------2-------3-------2------------------------------------|
B|--3-------3-------3-------3------------------------------------|
G|--0-------0-------0-------2------------------------------------|
D|--0-------0-------2-------0------------------------------------|
A|--X-------2-------3-------0------------------------------------|
E|--3-------X-------X-------X------------------------------------|

Interlude (find the rhythm by listening to the song)
e|--3-------3-------3-------3---3-3-------------------------------|
B|--3-------3-------3-------3---3-3-------------------------------|
G|--0-------2-------0-------2---0-0-------------------------------|
D|--2-------0-------0-------2---2-0-------------------------------|
A|--2-------0-------X-------0---3-2-------------------------------|
E|--0-------2-------3-------X---X-X-------------------------------|

e|--3-------3-------3-------3-------3-------3-2-------------------|
B|--3-------3-------3-------3-------3-------3-3-------------------|
G|--0-------2-------0-------2-------0-------2-2-------------------|
D|--2-------0-------0-------2-------2-------0-0-------------------|
A|--2-------0-------X-------0-------3-------0-0-------------------|
E|--0-------2-------3-------X-------X-------X-X-------------------|

Cause you know, I want you to know
Cause you know, I want you to know
I could give you more then the world and a little bit more

e|--3-------2-------3-------2------------------------------------|
B|--3-------3-------3-------3------------------------------------|
G|--0-------0-------0-------2------------------------------------|
D|--0-------0-------2-------0------------------------------------|
A|--X-------2-------3-------0------------------------------------|
E|--3-------X-------X-------X------------------------------------|

Chorus
e|--3-------2-------3-------2------------------------------------|X2
B|--3-------3-------3-------3------------------------------------|
G|--0-------0-------0-------2------------------------------------|
D|--0-------0-------2-------0------------------------------------|
A|--X-------2-------3-------0------------------------------------|
E|--3-------X-------X-------X------------------------------------|

Wherever you want me
Whenever you need meÖ

Whatever youíre asking
Thereís no need to ask itÖ

e|--3-------2-------3-------2------------------------------------|
B|--3-------3-------3-------3------------------------------------|
G|--0-------0-------0-------2------------------------------------|
D|--0-------0-------2-------0------------------------------------|
A|--X-------2-------3-------0------------------------------------|
E|--3-------X-------X-------X------------------------------------|

Iíll be on my way to get it done

e|--3-------2-------3-------2------------------------------------|X4
B|--3-------3-------3-------3------------------------------------|
G|--0-------0-------0-------2------------------------------------|
D|--0-------0-------2-------0------------------------------------|
A|--X-------2-------3-------0------------------------------------|
E|--3-------X-------X-------X------------------------------------|

Wherever you want me,
Whenever you need me
Iíll be waiting for my time to go
Whatever youíre asking
Thereís no need to ask it,
Iíll be on my way to get it done

Iíll be on my way to get it done

Iíll be on my way to get it done

Outro
e|---------------------------------------------------------------|
B|-----3-------3----------------3-------3------------------------|
G|-------0-------0------0---------0-------0-----0----------------|
D|---0-------0--------0---0---0-------0-------0---0--------------|
A|--------------------------2-------2-------2--------------------|
E|-3-------3--------3--------------------------------------------|
                          | play this part rapidly        |
e|------------------------|-------------------------------|------|
B|-----3-------3----------|----3-------3-------3-------3--|------|
G|-------0-------0-----0--|--2---2---2---2---2---2---2---2|------|
D|---2-------2-------2---2|0-------0-------0-------0------|------|
A|-3-------3-------3------|-------------------------------|------|
E|------------------------|-------------------------------|------|

e|---------------------------------------------------------------|
B|-----3-------3----------------3-------3------------------------|
G|-------0-------0------0---------0-------0-----0----------------|
D|---0-------0--------0---0---0-------0-------0---0--------------|
A|--------------------------2-------2-------2--------------------|
E|-3-------3--------3--------------------------------------------|
                          | play this part rapidly        |
e|------------------------|-------------------------------|--3---|
B|-----3-------3----------|----3-------3-------3-------3--|--3---|
G|-------0-------0-----0--|--2---2---2---2---2---2---2---2|--0---|
D|---2-------2-------2---2|0-------0-------0-------0------|--0---|
A|-3-------3-------3------|-------------------------------|--2---|
E|------------------------|-------------------------------|--3---|

=============================================================================
Related for Wherever Acoustic tab