Song name
# A B C D E F G H I J K L M N O P Q R S T U V W X Y Z

Five - World Of Mine tab

Song:      WOrld of Mine
Artist:    5ive
Album:     Kingsize
Tabbed by: Beethoven


Intro:

    G             C9  Dsus4 D Dsus2 D
E|--3--|----------------3---2---0---2---|
B|--3--|-----3------3---3---3---3---3---|
G|--0--|---0-0----0-0---2---2---2---2---|
D|--0--|--0------2------0---0---0---0---|
A|--2--|--------3-------0---0---0---0---|
E|--3--|-3--------------0---0---0---0---|

Verse:
     D      Cadd9    Am    D
E|-------------------------------|
B|----3--3---3--3---1--1---3--3--|
G|---2--2---0--0---2--2---2--2---|
D|--0--0-----------------0--0----|
A|---------3--3---0--0-----------|
E|------------------- -----------|

     D     Cadd9     Am    D
E|-------------------------------|
B|----3--3---3--3---1--1---3--3--|
G|---2--2---0--0---2--2---2--2---|
D|--0--0-----------------0--0----|
A|---------3--3---0--0-----------|
E|------------------- -----------|

Pre-chorus:

     D       C      Am   Dsus4 
E|-------------------------3--2--|
B|----3--3---3--3---1--1----3----|
G|---2--2---0--0---2--2---2--2---|
D|--0--0-----------------0-------|
A|---------3--3---0--0-----------|
E|------------------- -----------|

Chorus:
          G         Dsus4/F# (200233)
I've been trying to find a

Cadd9          Dsus4
friend in this crazy world

        G           Dsus4/F#  
and the more that I try to find a

Cadd9          Dsus4
friend in this crazy world

    G              Dsus4/F#
I'd sail the seven seas

    Cadd9            Dsus4
I'd climb a mountain high


To get you in this world of mine
E|---------------------------------------------|
B|----3-----3----3-----3---3-----3----3-----3--|
G|---0-----0----0-----0---0-----0----0-----0---|
D|-------------0---2----------------0---2------|
A|--2---3----------------2---3-----------------|
E|---------------------------------------------|

Repeat Verse

Repeat Chorus

Pre-Bridge:
E|---------------------------------------------|
B|----3-----3----3-----3---3-----3----3-----3--|
G|---0-----0----0-----0---0-----0----0-----0---|
D|-------------0---2----------------0---2------|
A|--2---3----------------2---3-----------------|
E|---------------------------------------------|
  
                                  Dsus4 D  
E|--------------------------2h3-|---3---2---|
B|----3-----3----3-----3---3----|---3---3---|
G|---0-----0----0-----0---2-----|---2---2---|
D|-------------0---2------------|---0---0---|
A|--2---3-----------------------|---0---0---|
E|------------------------------|---0---0---|

Bridge:

G                       Dsus4/F#
I've been searching for someone to care

Cadd9                    Dsus4
Someone who'll always be there

    G             C9  
E|--3--|-------------------0----|
B|--3--|-----3-------3----(5)-3-|
G|--0--|---0-0-----0-0----2-----|
D|--0--|--0-------2------0------|
A|--2--|---------3--------------|
E|--3--|-3----------------------|

    G             C9  Dsus4 D 
E|--3--|----------------3---2--|
B|--3--|-----3------3---3---3--|
G|--0--|---0-0----0-0---2---2--|
D|--0--|--0------2------0---0--|
A|--2--|--------3-------0---0--|
E|--3--|-3--------------0---0--|

    G              Dsus4/F#
I'd sail the seven seas

    Cadd9            Dsus4
I'd climb a mountain high

Repeat Chorus

End:
To get you in this world of mine
E|---------------------------------------------|
B|----3-----3----3-----3---3-----3----3-----3--|
G|---0-----0----0-----0---0-----0----0-----0---|
D|-------------0---2----------------0---2------|
A|--2---3----------------2---3-----------------|
E|---------------------------------------------|

                                
E|--------------------------2h3-|-------0---3--|
B|----3-----3----3-----3---3----|------3-3--3--|
G|---0-----0----0-----0---2-----|-----0---0-0--|
D|-------------0---2------------|--0h2------0--|
A|--2---3-----------------------|-----------2--|
E|------------------------------|-----------3--|
Tap to rate this tab
 
# A B C D E F G H I J K L M N O P Q R S T U V W X Y Z