Guitaretab - guitar tabs
Song name
# A B C D E F G H I J K L M N O P Q R S T U V W X Y Z

Five - Everybody Get Up tab

Hi this is my first tab ever so donít be too hypercritical

Song by Five: Everybody Get Up
Tuning: Dropped Db (DbAbDbGbBbEb)
Listen to the track to figure timing out
This sounds quite right to me
p=pull off
\=slide up
x=palm muting
h=hummer on
[ Tab from: http://www.guitaretab.com/f/five/69393.html ]
Verse and Chorus
|--------------------------------------------|
|--------------------------------------------|
|--------------------------------------------|
|--33-x-6-33-x-6-88-x-6-1010-x-6-------------|
|--33-x-6-33-x-6-88-x-6-1010-x-6-------------|
|--33-x-6-33-x-6-88-x-6-1010-x-6-------------|


|----------------------------------------------|
|---------6p4----------------------------------|
|-----------------5h---5p3-\1------------------|
|--33-------------------------33---------------|
|--33-------------------------33---------------|
|--33-------------------------33---------------|

Any comment or suggestions or critics or even curses send me at drink_v@hotmail.com
Related for Everybody Get Up tab