Song name
# A B C D E F G H I J K L M N O P Q R S T U V W X Y Z

Fivespeed - Mess Edit tab

Credits to my guitar teacher Vinny Dappio for making this tab. The number under the 
is how many times it's strummed. (i.e., -6-  strum it 6 times.)

Artist: Fivespeed
Song: The Mess (Edit)
Official website: http://www.fivespeedrocks.com/

Intro/Riff - Distortion

e ------------------------------------------|
B ------------------------------------------|
G ------------------------------------------|
D ---------4-3-------4-3--------------------|
A --4--2-4-------2-4------------------------|
E ------------------------------------------|

Verse - Clean, palm muted

e -------------------------------------------|
B -------------------------------------------|
G -------------------------------------------|
D -------------------------------------------|
A --3----------------------------------------|
E -----5--0--2-------------------------------|
  --8--8--8--8-------------------------------|

Pre-Chorus - Distortion

e -------------------------------------------|
B -------------------------------------------|
G -------------------------------------------|
D -------------------------------------------|
A --3----4-----------------------------------|
E --1----2-----------------------------------|
  --6----10----------------------------------|

Chorus - Distortion

e -------------------------------------------|
B -------------------------------------------|
G -------------------------------------------|
D ----6--------------------------------------|
A ----4---7---4------------------------------|
E --------5---2------------------------------|
  ----8---4---4------------------------------|

Feel free to correct!

E-mail: launch_rocket@yahoo.com
Tap to rate this tab
# A B C D E F G H I J K L M N O P Q R S T U V W X Y Z