Song name
# A B C D E F G H I J K L M N O P Q R S T U V W X Y Z

Fixkes - Kvraagetaan tab

tabbed by thehater
more info mail me 
fred0909roels@gmail.com

use barré's for a better sound!!!

tha accourd are always played like this: down ... up up down up down up down
(... = wait)

intro

D A Bm(or B) G\A=> G\A = G(down ... up up down up down)slite A (down)

part 1

D
makkik binne makkik binne om een lieke te beginnen
A
over de dinges die kik mij ammaal herinner
Bm
uit de goeien ouwen tijd van rekenen en vlijt
G                A  => look at the intro
een leven zonder zorgen ambitie of spijt
D
heelder dagen gaan sjotten
A
voor den donkere thuis
Bm
alleen ma wa ravotten
G                    A
en 't school daar kwam niets van in huis
D
drei keer durven was doen
A
maskes plage leifde vragen
Bm
en al wa de zegt da waarde zelf
G
me ou broek in den helft
G (4x down)
het was zo simpel ammaal
zo simpel ammaal
A (down up down up down up down up)
zo simpel as ik vraag het aan
kvraaghetaan

solo

E ---------------------------9-12-12-9----------------------------|
B ----------------------9-12-----------12-9-----------------------|
G --------------9-11-12---------------------12-11-9---------------|
D ---------9-11-------------------------------------11-9----------|
A -9-10-11-----------------------------------------------11-10-9--|
E ----------------------------------------------------------------|

part 2

D
A
Bm
G\A (intro)
D
A
Bm
G\A (intro)
D
A
Bm
G\A (intro)
G (4x down)
het was zo simpel ammaal
zo simpel ammaal
A (down up down up down up down up)
zo simpel as ik vraag het aan
kvraaghetaan

solo 2

E ----------------------------------------------------------------|
B ----------------------9-12----------9---------------------------|
G --------------9-11-12------11(FULL)---11-9-12-11-9--------------|
D ---------9-11--------------------------------------11-9---------|
A -9-10-11------------------------------------------------11-10-9-|
E ----------------------------------------------------------------|

D
A
Bm
G\A (intro)
D
A
Bm
G\A (intro)
D
A
Bm
G\A (intro)
G (4x down)
het was zo simpel ammaal
zo simpel ammaal
A (down up down up down up down up)
zo simpel as ik vraag het aan
kvraaghetaan

outro

D A Bm G\A(intro)
D A Bm G\A(intro)
D A Bm G\A(intro)
D A Bm G\A(intro)
D (down)
Tap to rate this tab
# A B C D E F G H I J K L M N O P Q R S T U V W X Y Z