Song name
# A B C D E F G H I J K L M N O P Q R S T U V W X Y Z

Fixx - One Thing Leads To Another tab

----------------------------------------------------------------------------
			     One Thing Leads to Another - The Fixx
----------------------------------------------------------------------------
Tabbed by:  Andrew Toussaint
Email:  ahexnyne@yahoo.com

Tuning:  Standard 

e|----6---6--X--X--6--X--6---6--X--------X--X---|
B|----6---6--X--X--6--X--9---8--X--9--8--X--X---|
G|----6---6--X--X--6--X--8---8--X--8--8--X--X---|
D|-----------------------6---6-----6--6---------|
A|----------------------------------------------|
E|----------------------------------------------|

e|----6----6--X--X--6--6----6--X--X--X--X--6----|
B|----6----6--X--X--6--6----6--X--X--X--X--6----|
G|----6----6--X--X--6--6----6--X--X--X--X--6----|
D|----------------------------------------------|
A|----------------------------------------------|
E|----------------------------------------------|
Tap to rate this tab
# A B C D E F G H I J K L M N O P Q R S T U V W X Y Z