Song name
# A B C D E F G H I J K L M N O P Q R S T U V W X Y Z

Flaka Krelani - Nje Bote Tjeter tab

Artist : Flaka Krelani 
Song   : Nje bote tjeter
Tabb by: ilir livoreka
Contact: iLoo.st@hotmail.com

clean.
e--------3---3-------------------------------------------|
B---------------------6---6---------4---4---------3---3--|
G------5---5--------5---5---------5---5---------5---5----|
D----5------------5-------------5-------------5----------|
A--3------------3-------------3-------------3------------|
E--------------------------------------------------------|

dist.
e------------------------------------------------|      
B------------------------------------------------|      
G------------------------------------------------|
D----3--------------------3----------------------|
A--3----6p5h6p5h6p5h6p5-3----6p5h6p5h6p5h6p5-----| ose
E------------------------------------------------|     

e------------------------------------------------|
B------------------------------------------------|
G------------------------------------------------|
D----3--1p0h1p0h1p0h1p0----3--1p0h1p0h1p0h1p0----|  
A--3---------------------3-----------------------|
E------------------------------------------------| 
kjo osht edhe solo e ksaj konge.

clean.
e--------3---3-------------------------------------------|
B---------------------6---6---------4---4---------3---3--|
G------5---5--------5---5---------5---5---------5---5----|
D----5------------5-------------5-------------5----------|
A--3------------3-------------3-------------3------------|
E--------------------------------------------------------|

e--------5---5--------4---4---------3---3--------3---3---|
B------4---4--------4---4---------4---4--------4---4-----|
G----5------------5-------------5------------5-----------|
D--------------------------------------------------------|
A--3------------3------------3-------------3-------------|
E--------------------------------------------------------|

dist.
e------------------------------------------------|      
B------------------------------------------------| dej kur kryhet     
G------------------------------------------------| texti luhet kjo
D----3--------------------3----------------------| manej ndrron pak
A--3----6p5h6p5h6p5h6p5-3----6p5h6p5h6p5h6p5-----| per 1 oktav.
E------------------------------------------------|

e------------------------------------------------|      
B------------------------------------------------|      
G-------3p2h3p2h3p2h3p2-------3p2h3p2h3p2h3p2--5-|
D----3----------------------3--------------------|
A--3----------------------3----------------------|
E------------------------------------------------| 

qeto jon krejt notat e konges ju metet veq me ndegju pak edhe me lidh, muni vena vena me improvizu
me bo naj pinch harmonic etj.



Tap to rate this tab
# A B C D E F G H I J K L M N O P Q R S T U V W X Y Z