Song name
# A B C D E F G H I J K L M N O P Q R S T U V W X Y Z

Flamin Groovies - High Flyin Baby tab

Artist-Flamin' Groovies
Song-High Flyin' Baby
Album-Teenage Head
Writer-Loney
Tabbed by S. McNally

Main slide guitar tuned to open G (D G D G B D)

/=slide up
\=slide down
x=deaden string


Intro
----------------------------------------------------|
----------------------------------------------------|
-----0-x-0-x-0-x-0-x--3/5--0-x-0-x-0-x-0-x--3\2-----|
-----0-x-0-x-0-x-0-x--3/5--0-x-0-x-0-x-0-x--3\2-----|
-----0-x-0-x-0-x-0-x--3/5--0-x-0-x-0-x-0-x--3\2-----|
-3/5------------------------------------------------|

-----------------------------------------------|
-----------------------------------------------|
--0-x-0-x-0-x-0-x--3/5--0-x-0-x-0-x-0-x--0-----|
--0-x-0-x-0-x-0-x--3/5--0-x-0-x-0-x-0-x--0-----|
--0-x-0-x-0-x-0-x--3/5--0-x-0-x-0-x-0-x--0-----|
-----------------------------------------------|

  C             D
----------------------------|
----------------------------|
-3/5----3/5-----5/7----5/7--|
-3/5----3/5-----5/7----5/7--|
-3/5----3/5-----5/7----5/7--|
----------------------------|

 C             D
----------------------------|
----------------------------|
-3/5----3/5-----5/7----7\---|
-3/5----3/5-----5/7----7\---|
-3/5----3/5-----5/7----7\---|
----------------------------|

(0:24)
-------------------------------------------------|
-------------------------------------------------|
--0-x-0-x-0-x-0-x--3/5--0-x-0-x-0-x-0-x--3\2-----|
--0-x-0-x-0-x-0-x--3/5--0-x-0-x-0-x-0-x--3\2-----|
--0-x-0-x-0-x-0-x--3/5--0-x-0-x-0-x-0-x--3\2-----|
-------------------------------------------------|

-----------------------------------------------|
-----------------------------------------------|
--0-x-0-x-0-x-0-x--3/5--0-x-0-x-0-x-0-x--0-----|
--0-x-0-x-0-x-0-x--3/5--0-x-0-x-0-x-0-x--0-----|
--0-x-0-x-0-x-0-x--3/5--0-x-0-x-0-x-0-x--0-----|
-----------------------------------------------|


Verse 1 (0:32)
 C
----------------------------------------------------------------------|
----------------------------------------------------------------------|
-3/5----------------------------------------3/5-----------------------|
-3/5----------------------------------------3/5-----------------------|
-3/5----------------------------------------3/5-----------------------|
----------------------------------------------------------------------|
I gotta roll baby she's so clean, well she takes the tune yea raw machine

 G
-----------------------------------------------|
-----------------------------------------------|
--0-x-0-x-0-x-0-x--3/5--0-x-0-x-0-x-0-x--0-----|
--0-x-0-x-0-x-0-x--3/5--0-x-0-x-0-x-0-x--0-----|
--0-x-0-x-0-x-0-x--3/5--0-x-0-x-0-x-0-x--0-----|
-----------------------------------------------|

 C
----------------------------------------------------------------------|
----------------------------------------------------------------------|
-3/5----------------------------------------3/5-----------------------|
-3/5----------------------------------------3/5-----------------------|
-3/5----------------------------------------3/5-----------------------|
----------------------------------------------------------------------|
When it comes to love babe she ain't small..she's the queen of hearts y'all

  G
-----------------------------------------------|
-----------------------------------------------|
--0-x-0-x-0-x-0-x--3/5--0-x-0-x-0-x-0-x--0-----|
--0-x-0-x-0-x-0-x--3/5--0-x-0-x-0-x-0-x--0-----|
--0-x-0-x-0-x-0-x--3/5--0-x-0-x-0-x-0-x--0-----|
-----------------------------------------------|

    D
-------------------------------------|
-------------------------------------|
-----5/7-----------------------------|
-----5/7-----------------------------|
-----5/7-----------------------------|
-------------------------------------|
What she don't know baby she don't care

         C  Bb G               C Bb  G
-----------------------------------------|
-----------------------------------------|
--------3/5-3--0-0------------3/5-3--0---|
--------3/5-3--0-0------------3/5-3--0---|
--------3/5-3--0-0------------3/5-3--0---|
-----------------------------------------|
But the bottom half there said they don't wear

-----------------------------------------------|
-----------------------------------------------|
--0-x-0-x-0-x-0-x--3/5--0-x-0-x-0-x-0-x--0-----|
--0-x-0-x-0-x-0-x--3/5--0-x-0-x-0-x-0-x--0-----|
--0-x-0-x-0-x-0-x--3/5--0-x-0-x-0-x-0-x--0-----|
-----------------------------------------------|


Chorus
  C                             D
--------------------------------------------------------|
--------------------------------------------------------|
-3/5-------------3/5---------------5/7-------------5/7--|
-3/5-------------3/5---------------5/7-------------5/7--|
-3/5-------------3/5---------------5/7-------------5/7--|
--------------------------------------------------------|
High flyin baby, high flyin baby keep your head, o yea

C                             D
--------------------------------------------------------|
--------------------------------------------------------|
-3/5-------------3/5--------------------5/7--------7\---|
-3/5-------------3/5--------------------5/7--------7\---|
-3/5-------------3/5--------------------5/7--------7\---|
--------------------------------------------------------|
High flyin baby, high flyin baby keep your head

Instrumental
-----------------------------------------------|
-----------------------------------------------|
--0-x-0-x-0-x-0-x--3/5--0-x-0-x-0-x-0-x--7\----|
--0-x-0-x-0-x-0-x--3/5--0-x-0-x-0-x-0-x--7\----|
--0-x-0-x-0-x-0-x--3/5--0-x-0-x-0-x-0-x--7\----|
-----------------------------------------------|

-----------------------------------------------|
-----------------------------------------------|
--0-x-0-x-0-x-0-x--3/5--0-x-0-x-0-x-0-x--3\----|
--0-x-0-x-0-x-0-x--3/5--0-x-0-x-0-x-0-x--3\----|
--0-x-0-x-0-x-0-x--3/5--0-x-0-x-0-x-0-x--3\----|
-----------------------------------------------|

  C          G
------------------------12--------12---|
---------------------12-12--------12---|
-3/5--3/5--5\0--3/12-12-----0-3/12-----|
-3/5--3/5--5\0--3/12--------0-3/12-----|
-3/5--3/5--5\0--3/12--------0----------|
---------------------------------------|

  C          G
--------------------------5\3------|
--------------------------5\3------|
-3/5--3/5---0-0--3\0--0-0-----5\3--|
-3/5--3/5---0-0--3\0--0-0-----5\3--|
-3/5--3/5---0-0--3\0--0-0----------|
-----------------------------------|

    D
-------------------------------------|
-------------------------------------|
-----5/7-----------------------------|
-----5/7-----------------------------|
-----5/7-----------------------------|
-------------------------------------|

         C  Bb G               C Bb  G
-----------------------------------------|
-----------------------------------------|
--------3/5-3--0-0------------3/5-3--0---|
--------3/5-3--0-0------------3/5-3--0---|
--------3/5-3--0-0------------3/5-3--0---|
-----------------------------------------|

  G
-----------------------------------------------|
-----------------------------------------------|
--0-x-0-x-0-x-0-x--3/5--0-x-0-x-0-x-0-x--0-----|
--0-x-0-x-0-x-0-x--3/5--0-x-0-x-0-x-0-x--0-----|
--0-x-0-x-0-x-0-x--3/5--0-x-0-x-0-x-0-x--0-----|
-----------------------------------------------|


Chorus
  C                             D
--------------------------------------------------------|
--------------------------------------------------------|
-3/5-------------3/5---------------5/7-------------5/7--|
-3/5-------------3/5---------------5/7-------------5/7--|
-3/5-------------3/5---------------5/7-------------5/7--|
--------------------------------------------------------|
High flyin baby, high flyin baby keep your head, o yea

C                                      D
--------------------------------------------------------|
--------------------------------------------------------|
-3/5-------------3/5--------------------5/7--------7\---|
-3/5-------------3/5--------------------5/7--------7\---|
-3/5-------------3/5--------------------5/7--------7\---|
--------------------------------------------------------|
High flyin baby, high flyin baby keep your head


-------------------------------------------------|
-------------------------------------------------|
--0-x-0-x-0-x-0-x--3/5--0-x-0-x-0-x-0-x--3\2-----|
--0-x-0-x-0-x-0-x--3/5--0-x-0-x-0-x-0-x--3\2-----|
--0-x-0-x-0-x-0-x--3/5--0-x-0-x-0-x-0-x--3\2-----|
-------------------------------------------------|

Verse 2 (same pattern)
C
See that girl with the basket on
                                G
baby she not here she completly gone yea
C
She got the cards, baby got no care
                                      G
when she got the words it's a real affair
                D
Well you should take that baby down to the Kansas star
     C    Bb  G          C Bb G
I'll take that baby wherever i go


Chorus (repeat a few times and then fade out)
C                                          D
High Flyin'Baby, high flyin baby keep your head, o yea
Tap to rate this tab
 
# A B C D E F G H I J K L M N O P Q R S T U V W X Y Z