Song name
# A B C D E F G H I J K L M N O P Q R S T U V W X Y Z

Flaming Lips - The Observer tab

Figured this out all by myself.
I think its right, comment if wrong. You can figure out the timing yourself haha.
Have fun.

The Observer - The Flaming Lips


Intro: (0:09-0:36)
e-------7--------8---5----|
B----5--------5-----------|
G-------------------------|    x3
D-------------------------|
A-------------------------|
E-------------------------|


and then... (0:37-0:54)

e----7--3----5--1----3--0-----------|
B-----------------------------3-3/5-|
G-----------------------------------|
D-----------------------------------|
A-----------------------------------|
E-----------------------------------|

Then repeat the Intro 3 more times and then the next part and so forth. You'll catch on 
your smart enough ;)

(Strings and such with only little bits of random guitar in the background)

Then repeat the tab until the end.

--/-- means slide by the way.

Thats basically it.
Its really simple but beautiful.
Enjoy.
Tap to rate this tab
 
# A B C D E F G H I J K L M N O P Q R S T U V W X Y Z