Song name
# A B C D E F G H I J K L M N O P Q R S T U V W X Y Z

Flaming Lips - Feeling Yourself Disintegrate tab

BAND: The Flaming Lips

ALBUM: The Soft Bulletin

SONG: Feeling Yourself Disintegrate

~Tabbed by Jeremy R.~


This is a tab for my version of the beautiful melody in "Feeling Yourself Disintegrate" 
starting at 2:44 in the song:


E|-4--2---0---0h2-0-----4--2---0------------------|
B|-------2-2------------------2-2--2s4--2--0------|
G|------------------------------------------------|
D|------------------------------------------------|
A|------------------------------------------------|
E|------------------------------------------------|


E|-2s4--2---0--0h2-0------2-----2-----------------|
B|---------2-2-------2-2s4-4-2-4-4-2--------------|
G|------------------------------------------------|
D|------------------------------------------------|
A|------------------------------------------------|
E|------------------------------------------------|


E|-22222222--44444444--55555555--777777-7s4-4-----|
B|------------------------------------------------|
G|------------------------------------------------|
D|------------------------------------------------|
A|------------------------------------------------|
E|------------------------------------------------|
Tap to rate this tab
# A B C D E F G H I J K L M N O P Q R S T U V W X Y Z