Song name
# A B C D E F G H I J K L M N O P Q R S T U V W X Y Z

Flaming Lips - Chrome Plated Suicide tab

Flaming Lips, Chrome Plated Suicide

tabbed by bazdesh

Tuning - standard
So.. The intro and verses are G, A7sus4, Cadd9 and G, played like this

Strumming - half dotted, eight, quarter, quarter = DUDD
   
|--3--------3--3-----3-------|--3--------3--3-----3-------|
|--3--------3--3-----3-------|--3--------3--3-----3-------|
|--0--------0--0-----0-------|--0--------0--0-----0-------|
|--0--------0--0-----0-------|--0--------0--0-----0-------|
|--2--------2--2-----2-------|--2--------2--2-----2-------|
|--3--------3--3-----3-------|--3--------3--3-----3-------|


|--3--------3--3-----3-------|--3--------3--3-----3-------|
|--3--------3--3-----3-------|--3--------3--3-----3-------|
|--2--------2--2-----2-------|--2--------2--2-----2-------|
|--2--------2--2-----2-------|--2--------2--2-----2-------|
|--0--------0--0-----0-------|--0--------0--0-----0-------|
|----------------------------|----------------------------|


|--3--------3--3-----3-------|--3--------3--3-----3-------|
|--3--------3--3-----3-------|--3--------3--3-----3-------|
|--0--------0--0-----0-------|--0--------0--0-----0-------|
|--2--------2--2-----2-------|--2--------2--2-----2-------|
|--3--------3--3-----3-------|--3--------3--3-----3-------|
|----------------------------|----------------------------|


|--3--------3--3-----3-------|--3--------3--3-----3-------|
|--3--------3--3-----3-------|--3--------3--3-----3-------|
|--0--------0--0-----0-------|--0--------0--0-----0-------|
|--0--------0--0-----0-------|--0--------0--0-----0-------|
|--2--------2--2-----2-------|--2--------2--2-----2-------|
|--3--------3--3-----3-------|--3--------3--3-----3-------|

Chorus is C, D, G, C (strumming is quarter, eight, quarter, eight, quarter = DDUDU or DDUUD)

|----------------------------|----------------------------|
|--5-----5--5-----5--5-------|--7-----7--7-----7--7-------|
|--5-----5--5-----5--5-------|--7-----7--7-----7--7-------|
|--5-----5--5-----5--5-------|--7-----7--7-----7--7-------|
|--3-----3--3-----3--3-------|--5-----5--5-----5--5-------|
|----------------------------|----------------------------|


|--3-----3--3-----3--3-------|----------------------------|
|--3-----3--3-----3--3-------|--5-----5--5-----5--5-------|
|--4-----4--4-----4--4-------|--5-----5--5-----5--5-------|
|--5-----5--5-----5--5-------|--5-----5--5-----5--5-------|
|--5-----5--5-----5--5-------|--3-----3--3-----3--3-------|
|--3-----3--3-----3--3-------|----------------------------|


bazdesh(@)gmail(.)com
Tap to rate this tab
# A B C D E F G H I J K L M N O P Q R S T U V W X Y Z