Song name
# A B C D E F G H I J K L M N O P Q R S T U V W X Y Z

Flaming Lips - Stand In Line tab

Stand in Line (Guitar tab)
The Flaming Lips
In a Priest Driven Ambulance


Verse 1-3 (0:15)
   E                       A
e|-0-------0-0-0-------0---0-------0-0-0-------0---|
B|-0-------0-0-0-------0-0-2-------2-2-2-------2-0-|
G|-1-------1-1-1-------1-0-2-------2-2-2-------2-0-|
D|-2-------2-2-2-------2-0-2-------2-2-2-------2-0-|
A|-2-------2-2-2-------2-0-0-------0-0-0-------0-0-|
E|-0-------0-0-0-------0---------------------------|

   E                       A
e|-0-------0-0-0-------0---0-------0-0-0-------0---|
B|-0-------0-0-0-------0-0-2-------2-2-2-------2-0-|
G|-1-------1-1-1-------1-0-2-------2-2-2-------2-0-|
D|-2-------2-2-2-------2-0-2-------2-2-2-------2-0-|
A|-2-------2-2-2-------2-0-0-------0-0-0-------0-0-|
E|-0-------0-0-0-------0---------------------------|
    Ten men...               The gates...

   E                       A
e|-0-------0-0-0-------0---0-------0-0-0-------0---|
B|-0-------0-0-0-------0-0-2-------2-2-2-------2-0-|
G|-1-------1-1-1-------1-0-2-------2-2-2-------2-0-|
D|-2-------2-2-2-------2-0-2-------2-2-2-------2-0-|
A|-2-------2-2-2-------2-0-0-------0-0-0-------0-0-|
E|-0-------0-0-0-------0---------------------------|
   But they're not...

   E                       A
e|-0-------0-0-0-------0---0-------0-0-0-------0---|
B|-0-------0-0-0-------0-0-2-------2-2-2-------2-0-|
G|-1-------1-1-1-------1-0-2-------2-2-2-------2-0-|
D|-2-------2-2-2-------2-0-2-------2-2-2-------2-0-|
A|-2-------2-2-2-------2-0-0-------0-0-0-------0-0-|
E|-0-------0-0-0-------0---------------------------|
    And ten monks...          At the maternity...

   B7                      A
e|-------------------------0-------0-0-0-------0---|
B|-0-------0-0-0-------0-0-2-------2-2-2-------2-0-|
G|-2-------2-2-2-------2-0-2-------2-2-2-------2-0-|
D|-1-------1-1-1-------1-0-2-------2-2-2-------2-0-|
A|-2-------2-2-2-------2-0-0-------0-0-0-------0-0-|
E|-------------------------------------------------|
   Babies...                Out to play...

   E                       A
e|-0-------0-0-0-------0---0-------0-0-0-------0---|
B|-0-------0-0-0-------0-0-2-------2-2-2-------2-0-|
G|-1-------1-1-1-------1-0-2-------2-2-2-------2-0-|
D|-2-------2-2-2-------2-0-2-------2-2-2-------2-0-|
A|-2-------2-2-2-------2-0-0-------0-0-0-------0-0-|
E|-0-------0-0-0-------0---------------------------|
  Today

   E                       A
e|-0-------0-0-0-------0---0-------0-0-0-------0---|
B|-0-------0-0-0-------0-0-2-------2-2-2-------2-0-|
G|-1-------1-1-1-------1-0-2-------2-2-2-------2-0-|
D|-2-------2-2-2-------2-0-2-------2-2-2-------2-0-|
A|-2-------2-2-2-------2-0-0-------0-0-0-------0-0-|
E|-0-------0-0-0-------0---------------------------|
   What's a...             Girl like you...

   B7                      A
e|-------------------------0-------0-0-0-------0---|
B|-0-------0-0-0-------0-0-2-------2-2-2-------2-0-|
G|-2-------2-2-2-------2-0-2-------2-2-2-------2-0-|
D|-1-------1-1-1-------1-0-2-------2-2-2-------2-0-|
A|-2-------2-2-2-------2-0-0-------0-0-0-------0-0-|
E|-------------------------------------------------|
   Town...

Bridge (2:07)
   E    A    E    A    B7   A
e|-0----0----0----0---------0-|
B|-0----2----0----2----0----2-|
G|-1----2----1----2----2----2-| play x2
D|-2----2----2----2----1----2-|
A|-2----0----2----0----2----0-|
E|-0---------0----------------|
 *Each chord is shown once, but listen to the song for the strumming pattern

Verse 2 (3:20)
   E                       A
e|-0-------0-0-0-------0---0-------0-0-0-------0---|
B|-0-------0-0-0-------0-0-2-------2-2-2-------2-0-|
G|-1-------1-1-1-------1-0-2-------2-2-2-------2-0-|
D|-2-------2-2-2-------2-0-2-------2-2-2-------2-0-|
A|-2-------2-2-2-------2-0-0-------0-0-0-------0-0-|
E|-0-------0-0-0-------0---------------------------|

   E                       A
e|-0-------0-0-0-------0---0-------0-0-0-------0---|
B|-0-------0-0-0-------0-0-2-------2-2-2-------2-0-|
G|-1-------1-1-1-------1-0-2-------2-2-2-------2-0-|
D|-2-------2-2-2-------2-0-2-------2-2-2-------2-0-|
A|-2-------2-2-2-------2-0-0-------0-0-0-------0-0-|
E|-0-------0-0-0-------0---------------------------|
  And ten men...           Waiting for...

   E                       A
e|-0-------0-0-0-------0---0-------0-0-0-------0---|
B|-0-------0-0-0-------0-0-2-------2-2-2-------2-0-|
G|-1-------1-1-1-------1-0-2-------2-2-2-------2-0-|
D|-2-------2-2-2-------2-0-2-------2-2-2-------2-0-|
A|-2-------2-2-2-------2-0-0-------0-0-0-------0-0-|
E|-0-------0-0-0-------0---------------------------|
      Today ain't...          Ain't no garbage...
   E                       A
e|-0-------0-0-0-------0---0-------0-0-0-------0---|
B|-0-------0-0-0-------0-0-2-------2-2-2-------2-0-|
G|-1-------1-1-1-------1-0-2-------2-2-2-------2-0-|
D|-2-------2-2-2-------2-0-2-------2-2-2-------2-0-|
A|-2-------2-2-2-------2-0-0-------0-0-0-------0-0-|
E|-0-------0-0-0-------0---------------------------|
   Taken today...

   E                       A                         E
e|-0-------0-0-0-------0---0-------0-0-0-------0---|-0---|
B|-0-------0-0-0-------0-0-2-------2-2-2-------2-0-|-0---|
G|-1-------1-1-1-------1-0-2-------2-2-2-------2-0-|-1---|
D|-2-------2-2-2-------2-0-2-------2-2-2-------2-0-|-2---|
A|-2-------2-2-2-------2-0-0-------0-0-0-------0-0-|-2---|
E|-0-------0-0-0-------0---------------------------|-0---|
   (whistling)
Tap to rate this tab
# A B C D E F G H I J K L M N O P Q R S T U V W X Y Z